Song name
# A B C D E F G H I J K L M N O P Q R S T U V W X Y Z

New Found Glory - Black And Blue tab

BY SUP0!!!!

PM - Palm mute
~ - let ring out

Intro:
e|--------------------------------------------------------------------------|
B|--------------------------------------------------------------------------|
G|--------------6-6-4-4-4-4-4---------------6-6-6-4-4-4---------------------|
D|7-7-6-6-6-6-6-6-6-4-4-4-4-4-7-7-6-6-6-6-6-6-6-6-4-4-4-7-7-6-6-6-6-6-------|
A|7-7-6-6-6-6-6-4-4-2-2-2-2-2-7-7-6-6-6-6-6-4-4-4-2-2-2-7-7-6-6-6-6-6-------|
E|5-5-4-4-4-4-4---------------5-5-4-4-4-4-4-------------5-5-4-4-4-4-4-------|
                                            PM.   PM.
Intro Cont'd:
e|--------------------------------------------------------------------------|
B|--------------------------------------------------------------------------|
G|6-6-4-4-4-4-4---------------6-6-6-4-4-4-2-2-2-2-2-2-2-4-4-4-4-4-----------|
D|6-6-4-4-4-4-4-7-7-6-6-6-6-6-6-6-6-4-4-4-2-2-2-2-2-2-2-4-4-4-4-4-----------|
A|4-4-2-2-2-2-2-7-7-6-6-6-6-6-4-4-4-2-2-2-0-0-0-0-0-0-0-2-2-2-2-2-----------|
E|--------------5-5-4-4-4-4-4-----------------------------------------------|
                              PM.   PM.     PM.................

Verse:  3x (It's time to open your eyes...)
e|--------------------------------------0-----------------------------------|
B|----------------------------------------0~--------------------------------|
G|------------6-6-6-6-6-6---------------------------------------------------|
D|2-2-2-2-2-2-6-6-6-6-6-6-7-7-7-7-7-7---------------------------------------|
A|2-2-2-2-2-2-4-4-4-4-4-4-7-7-7-7-7-7---------------------------------------|
E|0-0-0-0-0-0-------------5-5-5-5-5-5---------------------------------------|

Verse Cont'd:  (Play this 4th time)
e|--------------------------------------------------------------------------|
B|--------------------------------------------------------------------------|
G|------------6-6-6-6-6-6---------------------------------------------------|
D|2-2-2-2-2-2-6-6-6-6-6-6-7-7-7-7-7-7---------------------------------------|
A|2-2-2-2-2-2-4-4-4-4-4-4-7-7-7-7-7-7---------------------------------------|
E|0-0-0-0-0-0-------------5-5-5-5-5-5--Pickslide----------------------------|

Chorus:  (Without you ruining my life...)
e|--------------------------------------------------------------------------|
B|--------------------------------------------------------------------------|
G|6-6-7-9-------------6-6-7-9--------------6-6-7-9--------------------------|
D|6-6-7-9-9-7-7-7-7-9-6-6-7-9-9-7-7--7-7-7-6-6-7-9-9-7-7-7-7----------------|
A|4-4-5-7-9-7-7-7-7-9-4-4-5-7-9-7-7--7-7-7-4-4-5-7-9-7-7-7-7----------------|
E|--------7-5-5-5-5-7---------7-5-5--5-5-5---------7-5-5-5-5----------------|
  PM........................................................

Chorus Cont'd:  (Yeah, Yeah, Yeah!)
e|--------------------------------------------------------------------------|
B|--------------------------------------------------------------------------|
G|------------8-8-8-8-8-8-9-------------------------------------------------|
D|9-9-9-9-9-9-8-8-8-8-8-8-9-------------------------------------------------|
A|9-9-9-9-9-9-6-6-6-6-6-6-7-------------------------------------------------|
E|7-7-7-7-7-7---------------------------------------------------------------|

Chorus Cont'd:  (Being drowned...)
e|--------------------------------------------------------------------------|
B|--------------------------------------------------------------------------|
G|6-6-6-4-4-4-2-2-2-2-2-2-6-6-6-4-4-4-6-6-4-6-6-6-4-4-4-2-2-2-2-2-2-4-4-4-4-|
D|6-6-6-4-4-4-2-2-2-2-2-2-6-6-6-4-4-4-6-6-4-6-6-6-4-4-4-2-2-2-2-2-2-4-4-4-4-|
A|4-4-4-2-2-2-0-0-0-0-0-0-4-4-4-2-2-2-4-4-2-4-4-4-2-2-2-0-0-0-0-0-0-2-2-2-2-|
E|--------------------------------------------------------------------------|
                          PM.   PM.                       PM.............

Verse:  (I can't sleep...)
e|-------------------------------------0------------------------------------|
B|---------------------------------------0----------------------------------|
G|------------6-6-6-6-6-6-------------------------------6-6-6-6-6-6---------|
D|2-2-2-2-2-2-6-6-6-6-6-6-7-7-7-7-7-7-------2-2-2-2-2-2-6-6-6-6-6-6---------|
A|2-2-2-2-2-2-4-4-4-4-4-4-7-7-7-7-7-7-------2-2-2-2-2-2-4-4-4-4-4-4---------|
E|0-0-0-0-0-0-------------5-5-5-5-5-5-------0-0-0-0-0-0---------------------|

Verse Cont'd:
e|-------------------------------------------------------------0------------|
B|---------------------------------------------------------------0----------|
G|------------------------------------6-6-6-6-6-6---------------------------|
D|7-7-7-7-7-7-7-7-7-7-7-7-2-2-2-2-2-2-6-6-6-6-6-6-7-7-7-7-7-7---------------|
A|7-7-7-7-7-7-7-7-7-7-7-7-2-2-2-2-2-2-4-4-4-4-4-4-7-7-7-7-7-7---------------|
E|5-5-5-5-5-5-5-5-5-5-5-5-0-0-0-0-0-0-------------5-5-5-5-5-5---------------|

Verse Cont'd:
e|--------------------------------------------------------------------------|
B|--------------------------------------------------------------------------|
G|------------6-6-6-6-6-6---------------------------------------------------|
D|2-2-2-2-2-2-6-6-6-6-6-6-7-7-7-7-7-7-7-7-7-7-7-7---------------------------|
A|2-2-2-2-2-2-4-4-4-4-4-4-7-7-7-7-7-7-7-7-7-7-7-7---------------------------|
E|0-0-0-0-0-0-------------5-5-5-5-5-5-5-5-5-5-5-5-Pickslide-----------------|

Repeat Chorus

Outro:  Guitar 1  8x (How can you say that you love me...)
e|------------------------|
B|------------------------|
G|------------------------|
D|2~---7~---9~------------|
A|2~---7~---9~------------|
E|0~---5~---7~------------|

Outro:  Guitar 2  (Repeat a bunch of times, then go to next part)
e|-------0------------|
B|----------0---------|
G|--------------------|
D|---2----------------|
A|--------------------|
E|--------------------|

Outro Cont'd:  Guitar 2  4x
e|------------------------|
B|------------------------|
G|------------------------|
D|2~---7~---9~------------|
A|2~---7~---9~------------|
E|0~---5~---7~------------|

End on:  Both Guitars
e|-------|
B|-------|
G|-------|
D|--2~---|
A|--2~---|
E|--0~---|
Tap to rate this tab
# A B C D E F G H I J K L M N O P Q R S T U V W X Y Z