Song name
# A B C D E F G H I J K L M N O P Q R S T U V W X Y Z

New Found Glory - My Friends Over You tab

Hey people this is my first tab. I hope you like it
:)

PS: This song is really fast paced and tricky to keep up with 
but once you practice a few times it get easier.


E-------------------------------------------------------------|
B-------------------------------------------------------------|
G-------------9--7--9--11--9--7-7----9--7--7--9--11--9--7-7---|
D-------------------------------------------------------------|
A-------------------------------------------------------------|
E-------------------------------------------------------------|
               { play for about 4 times and end on 7}

E----------------------------------------------|
B----------------------------------------------|
G----------------------------------------------|
D---------7~--7-7---7~~~-----------------------|
A---------5~--5-5---5~~~----5~--5-5---5~~~-----|
E---------------------------3~--3-3---3~~~-----|
              * *               * *

     (Pre-Chorus)
E--------------------------------------------------|
B--------------------------------------------------|
G--------------------------------------------------|
D--------------------------------------------------|
A-2--2--2-2-2----5--5--5-5-5-----------------------|
E-0--0--0-0-0----3--3--3-3-3-----------------------|


E---------------------|
B---------------------|
G---------------------|
D---2-2-2-2-2-2-2-2---|
A---0-0-0-0-0-0-0-0---|
E---------------------|


Chorus

E-------------------------------------|
B-------------------------------------|
G-------------------------------------|
D-----7---(8x)------------------------|
A-----5-----------5---(8x)------------|
E-----------------3-------------------|

E---------------------------------------------------------------|
B---------------------------------------------------------------|
G---4-4-4-4---6-6--7---9-----------------4-4-4-4---6-6--7---9---|
D---x-x-x-x---x-x--x---x-----------------x-x-x-x---x-x--x---x---|
A---2-2-2-2---4-4--5---7---5-5-5-5-5-5---2-2-2-2---4-4--5---7---|
E--------------------------3-3-3-3-3-3--------------------------|

E---------------------------------------------------------------|
B---------------------------------------------------------------|
G----4-4-4-4----6-6--7---9--------------------------------------|
D----x-x-x-x----x-x--x---x----------2----2~~~~------------------|
A----2-2-2-2----4-4--5---7---------------0~~~~------------------|
E----------------------------3-2-0------------------------------|

Repeat intro again then continue on to the verse


Bridge

E----------------------------------------------------------|
B----------------------------------------------------------|
G----------------------------------------------------------|
D----------------------------------------------------------|
A-------5----------5------------2------------2-------------|
E-----------2--3--------2--3--------2--3--------5---3------|


Bridge ending

E----------------------|
B----------------------|
G----------------------|
D----------------------|
A--------2~~~----------|
E--------0~~~----------|


Play chorus a couple more times



E---------------|
B---------------|
G-----end-on----|
D---------------|
A-----5~~~------|
E-----3~~~------|


Hope this helps  =)




       /  slide up
      \  slide down
      h  hammer-on
      p  pull-off
      ~  vibrato
      +  harmonic
      x  Mute note
Tap to rate this tab
# A B C D E F G H I J K L M N O P Q R S T U V W X Y Z