Song name
# A B C D E F G H I J K L M N O P Q R S T U V W X Y Z

New Found Glory - Radiosurgery tab

Standard Tuning
Intro/Verse
e-x-------x-x-------------x-x-------------x-x-------------|
b-x-------x-x-------------x-x-------------x-x-------------|
g-x-------x-x-8-9-8-------x-x-8-9-8-------x-x-8-9-8-------|
d-x-9-9-9-x-x-8-9-8-7-7-7-x-x-8-9-8-9-9-9-x-x-8-9-8-7-7-7-|
a-x-9-9-9-x-x-6-7-6-7-7-7-x-x-6-7-6-9-9-9-x-x-6-7-6-7-7-7-|
e-x-7-7-7-x-x-------5-5-5-x-x-------7-7-7-x-x-------5-5-5-|

Pre-Chorus
e-------------|
b-------------|
g-------------|
d-7--7--7-7-8-|
a-7--7--7-7-8-|
e-5--5--5-5-6-|

Chorus
e-----------------------------------------------------------------|
b-----------------------------------------------------------------|
g---------9-9-9-9---------9-9-9-9---------9-9-9-9-----------------|  2x
d-9-9-9-9-9-9-9-9-7-7-7-7-9-9-9-9-9-9-9-9-9-9-9-9-7-7-7-7-4-4-4-4-|
a-9-9-9-9-7-7-7-7-7-7-7-7-7-7-7-7-9-9-9-9-7-7-7-7-7-7-7-7-4-4-4-4-|
e-7-7-7-7---------5-5-5-5---------7-7-7-7---------5-5-5-5-2-2-2-2-|

e---------------------------------|
b---------------------------------|
g---------------------------------|
d-7-7-7-7-4-4-4-4-7-7-7-7-4-4-4-4-|
a-7-7-7-7-4-4-4-4-7-7-7-7-4-4-4-4-|
e-5-5-5-5-2-2-2-2-5-5-5-5-2-2-2-2-|

Verse 2
Lead Guitar (might be a little iffy)
*=pinch harmonic
e-************-
b-777777777777-
g--------------|
d--------------|
a--------------|
e--------------|

e-------x-x-------------x-x-------------x-x-------|
b-7-7-7-x-x-7-9-7-5-5-5-x-x-5-7-5-7-7-7-x-x-7-9-7-|
g-8-8-8-x-x-8-8-8-6-6-6-x-x-6-6-6-8-8-8-x-x-8-8-8-|
d-9-9-9-x-x-9-9-9-7-7-7-x-x-7-7-7-9-9-9-x-x-9-9-9-|
a-------x-x-------------x-x-------------x-x-------|
e-------x-x-------------x-x-------------x-x-------|

Pre-Chorus
Chorus

Solo
Rhythm plays intro/verse chords
Lead Guitar
e------------------------------------------------------|
b-5-4------444h5p4------444h5p4--------4-----5p4-5p4---|
g-----6-4----------6-4----------6-4--6---------------4-|
d----------------------------------------7-------------|
a------------------------------------------------------|
e------------------------------------------------------|

e----------------------------4----------------------|
b-5-4------7777-5-5-4-4----4---7--------------------|
g-----6-4----------------4--------------9-8-9-8-8-8-|
d---------------------------------7-7-7-------------|
a---------------------------------------------------|
e---------------------------------------------------|

Bridge
e-----------------------------------------------------------------|
b-----------------------------------------------------------------|
g-----------------------------------------------------------------|
d-----------------------------------------------------------------|  2x
a-----------------------------------------------------------------|
e-4-4-4-4-4-0-5-7-7-7-7-7-7-5-4-0-0-0-0-0-0-4-7-0-0-0-0-0-0-4-5-0-|

e----------------------------------------------------------------|
b----------------------------------------------------------------|
g----------------------------------------------------------------|
d-------------------------------11111111111111111111111111111111-|
a-------------------------------11111111111111111111111111111111-|
e-4-4-4-4-4-0-5-7-7-7-7-7-7-5-7--9-9-9-9-9-9-9-9-9-9-9-9-9-9-9-9-|

e------------------------------------------------------------------|
b------------------------------------------------------------------|
g------------------------------------------------1111111111111111--|
d-------------------------------1111111111111111-1111111111111111--|
a-------------------------------1111111111111111--9-9-9-9-9-9-9-9--|
e-4-4-4-4-4-0-5-7-7-7-7-7-7-5-7--9-9-9-9-9-9-9-9-------------------|

The rest of the song is pretty straightforward.  Have fun
Tap to rate this tab
# A B C D E F G H I J K L M N O P Q R S T U V W X Y Z