Song name
# A B C D E F G H I J K L M N O P Q R S T U V W X Y Z

New Found Glory - Map Of Your Body tab

------------------------------------------------------------------------------
		MAP OF YOUR BODY - NEW FOUND GLORY
------------------------------------------------------------------------------

Tabbed by : Boris Paskhaver (bigbadb)
Email     : bp771@nyu.edu


Tuning: Standard 
	Low to High (EADGBe)

INTRO RIFF (0:00)

  (x1)
e|---------------------------------------------------------------------------|
B|---------------------------------------------------------------------------|
G|--3-3--3-3-----3-3--3-3-----3-3--3-3-----3---------------------------------|
D|--3-3--3-3--3--3-3--3-3--3--3-3--3-3--3--3---------------------------------|
A|--1-1--1-1--3--1-1--1-1--3--1-1--1-1--3--1---------------------------------|
E|------------1------------1------------1------------------------------------|
                                               Things are looking

VERSE ONE (0:05)

  (x2)
e|---------------------------------------------------------------------------|
B|---------------------------------------------------------------------------|
G|--3-3-3-3-3-3-3-3-3-3-3-3-3-3-3-3-8-8-8-8-8-8-8-8-10-10-10-10-10-10-10-10--|
D|--3-3-3-3-3-3-3-3-3-3-3-3-3-3-3-3-8-8-8-8-8-8-8-8-10-10-10-10-10-10-10-10--|
A|--1-1-1-1-1-1-1-1-1-1-1-1-1-1-1-1-6-6-6-6-6-6-6-6--8--8--8--8--8--8--8--8--|
E|---------------------------------------------------------------------------|
 1  Up, now the stars are all        apologies on     underlines, finally
 2  Up, finally keeping you in       advantage of     ahead of time

  (x1)
e|---------------------------------------------------------------------------|
B|---------------------------------------------------------------------------|
G|--5-5-5-5-5-5-5-5-5-5-5-5-5-5-5-5-8-8-8-8-8-8-8-8-8-8-8-8-8-8-8-8----------|
D|--5-5-5-5-5-5-5-5-5-5-5-5-5-5-5-5-8-8-8-8-8-8-8-8-8-8-8-8-8-8-8-8----------|
A|--3-3-3-3-3-3-3-3-3-3-3-3-3-3-3-3-6-6-6-6-6-6-6-6-6-6-6-6-6-6-6-6----------|
E|---------------------------------------------------------------------------|
 1   And oh, I know  you'll never    way out            without me

  (x2)
e|---------------------------------------------------------------------------|
B|---------------------------------------------------------------------------|
G|--3-3-3-3-3-3-3-3-3-3-3-3-3-3-3-3-8-8-8-8-8-8-8-8-10-10-10-10-10-10-10-10--|
D|--3-3-3-3-3-3-3-3-3-3-3-3-3-3-3-3-8-8-8-8-8-8-8-8-10-10-10-10-10-10-10-10--|
A|--1-1-1-1-1-1-1-1-1-1-1-1-1-1-1-1-6-6-6-6-6-6-6-6--8--8--8--8--8--8--8--8--|
E|---------------------------------------------------------------------------|
 1  Stuck hearing you repeating      Patch it up     tearing eyes.  Keep it
 2  up, you will never realize       friends you're   up in time

  (x1)
e|---------------------------------------------------------------------------|
B|---------------------------------------------------------------------------|
G|--5-5-5-5-5-5-5-5-5-5-5-5-5-5-5-5-8-8-8-8-8-8-8-8-8-8-8-8-8-8-8-8----------|
D|--5-5-5-5-5-5-5-5-5-5-5-5-5-5-5-5-8-8-8-8-8-8-8-8-8-8-8-8-8-8-8-8----------|
A|--3-3-3-3-3-3-3-3-3-3-3-3-3-3-3-3-6-6-6-6-6-6-6-6-6-6-6-6-6-6-6-6----------|
E|---------------------------------------------------------------------------|
 1    And oh, I know  you'll never   way out            without me

e|---------------------------------------------------------------------------|
B|---------------------------------------------------------------------------|
G|--5-5-5-5-5-5-5-5-5-5-5-5-5-5-5-5-8-8-8-8-8-8-8-8--10----------------------|
D|--5-5-5-5-5-5-5-5-5-5-5-5-5-5-5-5-8-8-8-8-8-8-8-8--10--  LET RING  --------|
A|--3-3-3-3-3-3-3-3-3-3-3-3-3-3-3-3-6-6-6-6-6-6-6-6---8----------------------|
E|---------------------------------------------------------------------------|
 1    Oh, I know  you'll never       way         out                 There's a

CHORUS ONE (0:47)

  (x1)
e|---------------------------------------------------------------------------|
B|---------------------------------------------------------------------------|
G|--3-3--3-3----3-3--3-3-----------------------------------------------------|
D|--3-3--3-3----3-3--3-3--3--5-5--5-5----5-5--5-5--3-------------------------|
A|--1-1--1-1----1-1--1-1--3--5-5--5-5----5-5--5-5--3-------------------------|
E|------------------------1--3-3--3-3----3-3--3-3--1-------------------------|
 1   Map of      over my     Curse not   hold again

e|---------------------------------------------------------------------------|
B|---------------------------------------------------------------------------|
G|--8-8--8-8----8-8--8-8-----10-10----10-10-8-8-7-7-5-5----------------------|
D|--8-8--8-8----8-8--8-8--8--10-10-----x--x-x-x-x-x-x-x----------------------|
A|--6-6--6-6----6-6--6-6--8---8--8-----8--8-6-6-5-5-3-3----------------------|
E|------------------------6----------|     QUICKLY     |---------------------|
 1   Time I      all out       go 

INTRO RIFF (1:00)

e|------------------|
B|------------------|
G|--3-3--3-3-----3--|
D|--3-3--3-3--3--3--|
A|--1-1--1-1--3--1--|
E|------------1-----|

VERSE TWO (1:03)

 (x2)
e|---------------------------------------------------------------------------|
B|---------------------------------------------------------------------------|
G|--3-3-3-3-3-3-3-3-3-3-3-3-3-3-3-3-8-8-8-8-8-8-8-8-10-10-10-10-10-10-10-10--|
D|--3-3-3-3-3-3-3-3-3-3-3-3-3-3-3-3-8-8-8-8-8-8-8-8-10-10-10-10-10-10-10-10--|
A|--1-1-1-1-1-1-1-1-1-1-1-1-1-1-1-1-6-6-6-6-6-6-6-6--8--8--8--8--8--8--8--8--|
E|---------------------------------------------------------------------------|
 1   Up, now we're exchanging        Before, before   meaningless kiss
 2   Up, hiding all the evidence     Fact you sell    ever did

 (x1)
e|---------------------------------------------------------------------------|
B|---------------------------------------------------------------------------|
G|--5-5-5-5-5-5-5-5-5-5-5-5-5-5-5-5-8-8-8-8-8-8-8-8-8-8-8-8-8-8-8-8----------|
D|--5-5-5-5-5-5-5-5-5-5-5-5-5-5-5-5-8-8-8-8-8-8-8-8-8-8-8-8-8-8-8-8----------|
A|--3-3-3-3-3-3-3-3-3-3-3-3-3-3-3-3-6-6-6-6-6-6-6-6-6-6-6-6-6-6-6-6----------|
E|---------------------------------------------------------------------------|
 1    And oh, I know  you'll never   way out            without me

e|---------------------------------------------------------------------------|
B|---------------------------------------------------------------------------|
G|--5-5-5-5-5-5-5-5-5-5-5-5-5-5-5-5-8-8-8-8-8-8-8-8--10----------------------|
D|--5-5-5-5-5-5-5-5-5-5-5-5-5-5-5-5-8-8-8-8-8-8-8-8--10--  LET RING  --------|
A|--3-3-3-3-3-3-3-3-3-3-3-3-3-3-3-3-6-6-6-6-6-6-6-6---8----------------------|
E|---------------------------------------------------------------------------|
 1    Oh, I know  you'll never      way out            
 

CHORUS TWO (1:27) - Think they switch in extra 8/10/10

  (x2)
e|---------------------------------------------------------------------------|
B|---------------------------------------------------------------------------|
G|--3-3--3-3----3-3--3-3-----------------------------------------------------|
D|--3-3--3-3----3-3--3-3--3--5-5--5-5----5-5--5-5--3-------------------------|
A|--1-1--1-1----1-1--1-1--3--5-5--5-5----5-5--5-5--3-------------------------|
E|------------------------1--3-3--3-3----3-3--3-3--1-------------------------|
 1   Map of      over my     Curse not   hold again
 2   Map of      over my     Curse not   hold again

e|---------------------------------------------------------------------------|
B|---------------------------------------------------------------------------|
G|--8-8--8-8----8-8--8-8-----10-10----10-10-8-8-7-7-5-5----------------------|
D|--8-8--8-8----8-8--8-8--8--10-10-----x--x-x-x-x-x-x-x----------------------|
A|--6-6--6-6----6-6--6-6--8---8--8-----8--8-6-6-5-5-3-3----------------------|
E|------------------------6----------|     QUICKLY     |---------------------|
 1   Time I      all out       go         Ooaaaahh
 2   Time I      all out       go

BRIDGE - RHYTHM: (1:51)

  (x3 - GENTLE)
e|---------------------------------------------------------------------------|
B|---------------------------------------------------------------------------|
G|--3--------------------------------8----------------10---------------------|
D|--3--  LET RING  --5---------------8--  LET RING  --10--  LET RING  -------|
A|--1----------------5--  LET RING --6-----------------8---------------------|
E|-------------------3-------------------------------------------------------|
 2  Remember         yesterday       you and me        world
 3  Remember         yesterday       you and me        world

BRIDGE - LEAD MELODY (1:51)

  (x3) **
e|-----------10--------|-----------10--------|
B|-----11-------11-----|-----11-------11-----|
G|--10----10-------10--|--12----12-------12--|
D|---------------------|---------------------|
A|-----   (x2)   ------|------   (x2)  ------|
E|---------------------|---------------------|

e|-----------11--------|-----------13-------15-------13--------|
B|-----11-------11-----|-----13-------13-------13-------13-----|
G|--12----12-------12--|--14----14-------14-------14-------14--|
D|---------------------|---------------------------------------|
A|-----   (x2)   ------|--------------   (x1)  ----------------|
E|---------------------|---------------------------------------|

** On third time, cut out the last section entirely and hit the F power
chord with the rhythm

CHORUS BUILDUP (2:31)

 (x1)
e|---------------------------------------------------------------------------|
B|---------------------------------------------------------------------------|
G|--5-5-5-5-5-5-5-5-5-5-5-5-5-5-5-5-8-8-8-8-8-8-8-8-8-8-8-8-8-8-8-8----------|
D|--5-5-5-5-5-5-5-5-5-5-5-5-5-5-5-5-8-8-8-8-8-8-8-8-8-8-8-8-8-8-8-8----------|
A|--3-3-3-3-3-3-3-3-3-3-3-3-3-3-3-3-6-6-6-6-6-6-6-6-6-6-6-6-6-6-6-6----------|
E|---------------------------------------------------------------------------|
 1    And oh, I know  you'll never   way out        

e|---------------------------------------------------------------------------|
B|---------------------------------------------------------------------------|
G|--5-5-5-5-5-5-5-5-5-5-5-5-5-5-5-5-8----------------10----------------------|
D|--5-5-5-5-5-5-5-5-5-5-5-5-5-5-5-5-8--  LET RING  --10--  LET RING  --------|
A|--3-3-3-3-3-3-3-3-3-3-3-3-3-3-3-3-6-----------------8----------------------|
E|---------------------------------------------------------------------------|
 1    And Oh, I know  you'll never way               out            

FINAL CHORUS (2:44)

  (x3) On third round, lead joins with bridge melody (played faster)
e|---------------------------------------------------------------------------|
B|---------------------------------------------------------------------------|
G|--3-3-3-3-3-3-3-3-3-3-3-3-3-3----------------------------------------------|
D|--3-3-3-3-3-3-3-3-3-3-3-3-3-3-3-3--5-5-5-5-5-5-5-5-5-5-5-5-5-5-3-3---------|
A|--1-1-1-1-1-1-1-1-1-1-1-1-1-1-3-3--5-5-5-5-5-5-5-5-5-5-5-5-5-5-3-3---------|
E|------------------------------1-1--3-3-3-3-3-3-3-3-3-3-3-3-3-3-1-1---------|
 1   Map of your body                 Curse not having you to hold
 2   Map of your body                 Curse not having you to hold
 3   Ohhhh                                                Ohhh
 
e|------------------------------------------------------------------------------------|
B|------------------------------------------------------------------------------------|
G|--8-8-8-8-8-8-8-8-8-8-8-8-8-8------10-10-10-10-10-10-10-10-10-10-10-10-10-10-10-10--|
D|--8-8-8-8-8-8-8-8-8-8-8-8-8-8-8-8--10-10-10-10-10-10-10-10-10-10-10-10-10-10-10-10--|
A|--6-6-6-6-6-6-6-6-6-6-6-6-6-6-8-8---8--8--8--8--8--8--8--8--8--8--8--8--8--8--8--8--|
E|------------------------------6-6---------------------------------------------------|
 1   Time I figure this all             let me go
 2   Time I figure this all             let me go

MAIN RIFF OUTRO (3:20)

  (x1)
e|---------------------------------------------------------------------------|
B|---------------------------------------------------------------------------|
G|--3-3--3-3-----3-3--3-3-----3-3--3-3-----3---------------------------------|
D|--3-3--3-3--3--3-3--3-3--3--3-3--3-3--3--3---------------------------------|
A|--1-1--1-1--3--1-1--1-1--3--1-1--1-1--3--1---------------------------------|
E|------------1------------1------------1------------------------------------|
Tap to rate this tab
 
# A B C D E F G H I J K L M N O P Q R S T U V W X Y Z