Song name
# A B C D E F G H I J K L M N O P Q R S T U V W X Y Z

New Found Glory - Memories And Battle Scars tab

------------------------------------------------------------------------------
		MEMORIES AND BATTLE SCARS - NEW FOUND GLORY
------------------------------------------------------------------------------

Tabbed by : Boris Paskhaver (bigbadb)
Email     : bp771@nyu.edu

Tuning: Standard 

INTRO RIFF (0:01)

  (x1)
e|---------------------------------------------------------------------------|
B|---------------------------------------------------------------------------|
G|---------------------------------------------6-------9---------------------|
D|--9--9-9-9-9--x-x-x--x-x-x--9--9-9-9-9--x-x--6--x-x--9---------------------|
A|--9--9-9-9-9--x-x-x--x-x-x--9--9-9-9-9--x-x--4--x-x--7---------------------|
E|--7--7-7-7-7--x-x-x--x-x-x--7--7-7-7-7--x-x-----x-x------------------------|

e|---------------------------------------------------------------------------|
B|---------------------------------------------------------------------------|
G|---------------------------------------------6/8/9\8-----------------------|
D|--9--9-9-9-9--x-x-x--x-x-x--9--9-9-9-9--x-x--6/8/9\8-----------------------|
A|--9--9-9-9-9--x-x-x--x-x-x--9--9-9-9-9--x-x--4/6/7\6-----------------------|
E|--7--7-7-7-7--x-x-x--x-x-x--7--7-7-7-7--x-x--------------------------------|

VERSE ONE (0:08)

  (x2)
e|---------------------------------------------------------------------------|
B|---------------------------------------------------------------------------|
G|---------------------------------------------6-------9---------------------|
D|--9--9-9-9-9----------------9--9-9-9-9--x-x--6--x-x--9---------------------|
A|--9--9-9-9-9----------------9--9-9-9-9--x-x--4--x-x--7---------------------|
E|--7--7-7-7-7----------------7--7-7-7-7--x-x-----x-x------------------------|
 1   Lately       I've been   pulled down so  hard
 2   Barely  afford  to       miss out on you, I

  (x1)
e|---------------------------------------------------------------------------|
B|---------------------------------------------------------------------------|
G|--8--8-8-8-8----------------9--9-9-9-9-------6-------9---------------------|
D|--8--8-8-8-8--x-x-x--x-x-x--9--9-9-9-9--x-x--6--x-x--9---------------------|
A|--6--6-6-6-6--x-x-x--x-x-x--7--7-7-7-7--x-x--4--x-x--7---------------------|
E|--------------x-x-x--x-x-x--------------x-x-----x-x------------------------|
 1   would be   breached by    now if I    saved my breath
 
e|---------------------------------------------------------------------------|
B|---------------------------------------------------------------------------|
G|---------------------------------------------6-------9---------------------|
D|--9--9-9-9-9--x-x-x--x-x-x--9--9-9-9-9--x-x--6--x-x--9---------------------|
A|--9--9-9-9-9--x-x-x--x-x-x--9--9-9-9-9--x-x--4--x-x--7---------------------|
E|--7--7-7-7-7--x-x-x--x-x-x--7--7-7-7-7--x-x-----x-x------------------------|

  (x2)
e|---------------------------------------------------------------------------|
B|---------------------------------------------------------------------------|
G|---------------------------------------------6-------9---------------------|
D|--9--9-9-9-9----------------9--9-9-9-9--x-x--6--x-x--9---------------------|
A|--9--9-9-9-9----------------9--9-9-9-9--x-x--4--x-x--7---------------------|
E|--7--7-7-7-7----------------7--7-7-7-7--x-x-----x-x------------------------|
 1    Careful,      it         doesn't pay  to be so re-
 2   -gretful,          no I  won't look back and if I

  (x1)
e|---------------------------------------------------------------------------|
B|---------------------------------------------------------------------------|
G|--8--8-8-8-8----------------9--9-9-9-9-------------------------------------|
D|--8--8-8-8-8--x-x-x--x-x-x--9--9-9-9-9---x-x-x--x-x-x----------------------|
A|--6--6-6-6-6--x-x-x--x-x-x--7--7-7-7-7---x-x-x--x-x-x----------------------|
E|--------------x-x-x--x-x-x---------------x-x-x--x-x-x----------------------|
 1    Had the    guts right    now to       take it

e|---------------------------------------------------------------------------|
B|---------------------------------------------------------------------------|
G|--8--8-8-8-8----------------9----------------11----------------------------|
D|--8--8-8-8-8--x-x-x--x-x-x--9--  LET RING  --11--  LET RING  --------------|
A|--6--6-6-6-6--x-x-x--x-x-x--7-----------------9----------------------------|
E|--------------x-x-x--x-x-x-------------------------------------------------|
 1         But I don't think  I      will       make it

CHORUS ONE (0:39)

  (x3)
e|---------------------------------------------------------------------------|
B|---------------------------------------------------------------------------|
G|--4--4-4--4-4-4------------------------------------------------------------|
D|--4--4-4--4-4-4----2--2-2--2-2-2----6--6-6--6-6-6----4--4-4--4-4-4---------|
A|--2--2-2--2-2-2----2--2-2--2-2-2----6--6-6--6-6-6----4--4-4--4-4-4---------|
E|-------------------0--0-0--0-0-0----4--4-4--4-4-4----2--2-2--2-2-2---------|
 1    I wanna         kiss you so     hard that your     lips bleed
 2    I wanna         hold you so     tight that your    ribs break
 3    In  the         end, we'll both know who we         are, a 

  (x1)
e|---------------------------------------------------------------------------|
B|---------------------------------------------------------------------------|
G|---------------------------------------------------------------------------|
D|--2----------------5--5--5--------4--4--4----------------------------------|
A|--2--  LET RING  --5--5--3--------4--4--4----------------------------------|
E|--0----------------3--3--3--------2--2--2----------------------------------|
 1  body full of     memories and battle scars

RIFF (0:55)

e|------------------------------------------------|
B|------------------------------------------------|
G|------------------------------------------------|
D|--9--9-9-9-9--x-x-x--x-x-x--9--9-9-9-9--2-2--2--|
A|--9--9-9-9-9--x-x-x--x-x-x--9--9-9-9-9--2-2--2--|
E|--7--7-7-7-7--x-x-x--x-x-x--7--7-7-7-7--0-0--0--|
                                          P.M---|

VERSE TWO (1:00)

  (x2)
e|---------------------------------------------------------------------------|
B|---------------------------------------------------------------------------|
G|---------------------------------------------6-------9---------------------|
D|--9--9-9-9-9----------------9--9-9-9-9--x-x--6--x-x--9---------------------|
A|--9--9-9-9-9----------------9--9-9-9-9--x-x--4--x-x--7---------------------|
E|--7--7-7-7-7----------------7--7-7-7-7--x-x-----x-x------------------------|
 1   Blame me           every chance that you get, I'm
 2   Hopeful that this  won't  ruin us    yet,      you'll

  (x1)
e|---------------------------------------------------------------------------|
B|---------------------------------------------------------------------------|
G|--8--8-8-8-8----------------9--9-9-9-9-------------------------------------|
D|--8--8-8-8-8--x-x-x--x-x-x--9--9-9-9-9---x-x-x--x-x-x----------------------|
A|--6--6-6-6-6--x-x-x--x-x-x--7--7-7-7-7---x-x-x--x-x-x----------------------|
E|--------------x-x-x--x-x-x---------------x-x-x--x-x-x----------------------|
 1   Gladly      risk  your    neck to       tell  me

e|---------------------------------------------------------------------------|
B|---------------------------------------------------------------------------|
G|--8--8-8-8-8----------------9----------------11----------------------------|
D|--8--8-8-8-8--x-x-x--x-x-x--9--  LET RING  --11--  STOP  ------------------|
A|--6--6-6-6-6--x-x-x--x-x-x--7-----------------9----------------------------|
E|--------------x-x-x--x-x-x-------------------------------------------------|
 1    How        this   will  never             work out

CHORUS TWO (1:15)

  (x3)
e|---------------------------------------------------------------------------|
B|---------------------------------------------------------------------------|
G|--4--4-4--4-4-4------------------------------------------------------------|
D|--4--4-4--4-4-4----2--2-2--2-2-2----6--6-6--6-6-6----4--4-4--4-4-4---------|
A|--2--2-2--2-2-2----2--2-2--2-2-2----6--6-6--6-6-6----4--4-4--4-4-4---------|
E|-------------------0--0-0--0-0-0----4--4-4--4-4-4----2--2-2--2-2-2---------|
 1    I wanna         kiss you so     hard that your     lips bleed
 2    I wanna         hold you so     tight that your    ribs break
 3    In  the         end, we'll both know who we         are, a 

  (x1)
e|---------------------------------------------------------------------------|
B|---------------------------------------------------------------------------|
G|-----------------------------------------------------4-4-------------------|
D|--2----------------5--5--5--------4--4--4------------4-4----2--------------|
A|--2--  LET RING  --5--5--3--------4--4--4------------2-2----2--------------|
E|--0----------------3--3--3--------2--2--2-------------------0--------------|
 1  body full of     memories and battle scars

BRIDGE (1:32)

  (x2)
e|---------------------------------------------------------------------------|
B|---------------------------------------------------------------------------|
G|--4-4-----4-4-------------------4-4--------4-4-----------------------------|
D|--4-4--2--4-4--2--2-2-2--2-2-2--4-4--2--2--4-4--2--2-2-2--2-2-2------------|
A|--2-2--2--2-2--2--2-2-2--2-2-2--2-2--2--2--2-2--2--2-2-2--2-2-2------------|
E|-------0-------0--0-0-0--0-0-0-------0--0-------0--0-0-0--0-0-0------------|
                    P.M--| P.M--|                    P.M--| P.M--|

  (x1)
e|----------------------------------------------|
B|----------------------------------------------|
G|--8--8-8----------------9--9-9----------------|
D|--8--8-8--x-x-x--x-x-x--9--9-9--x-x-x--x-x-x--|
A|--6--6-6--x-x-x--x-x-x--7--7-7--x-x-x--x-x-x--|
E|----------x-x-x--x-x-x----------x-x-x--x-x-x--|
 1   You'll risk   your   neck    to tell me

e|---------------------------------------------------------------------------|
B|---------------------------------------------------------------------------|
G|--8--8-8----------------9--------11----------------------------------------|
D|--8--8-8--x-x-x--x-x-x--9---------9----------------------------------------|
A|--6--6-6--x-x-x--x-x-x--7---------9----------------------------------------|
E|----------x-x-x--x-x-x-----------------------------------------------------|
 1   how     this  will   never     work out

FINAL CHORUS (1:58)

  (x2)
e|---------------------------------------------------------------------------|
B|---------------------------------------------------------------------------|
G|--4------------------------------------------------------------------------|
D|--4--  LET RING  --2----------------6----------------4---------------------|
A|--2----------------2--  LET RING  --6--  LET RING  --4--  LET RING  -------|
E|-------------------0----------------4----------------2---------------------|
 1  I wanna          kiss you so      hard that your   lips bleed
 2  I wanna          hold you so      hard that your   ribs break 

  (x1)
e|---------------------------------------------------------------------------|
B|---------------------------------------------------------------------------|
G|--4--4-4--4-4-4------------------------------------------------------------|
D|--4--4-4--4-4-4----2--2-2--2-2-2----6--6-6--6-6-6----4--4-4--4-4-4---------|
A|--2--2-2--2-2-2----2--2-2--2-2-2----6--6-6--6-6-6----4--4-4--4-4-4---------|
E|-------------------0--0-0--0-0-0----4--4-4--4-4-4----2--2-2--2-2-2---------|
 1    In  the        end, we'll both   know who we       are, a 

e|---------------------------------------------------------------------------|
B|---------------------------------------------------------------------------|
G|---------------------------------------------------------------------------|
D|--2----------------5--5--5--------4--4--4----------------------------------|
A|--2--  LET RING  --5--5--3--------4--4--4----------------------------------|
E|--0----------------3--3--3--------2--2--2----------------------------------|
 1  body full of     memories and battle scars

  (x3)
e|---------------------------------------------------------------------------|
B|---------------------------------------------------------------------------|
G|--4--4-4--4-4-4------------------------------------------------------------|
D|--4--4-4--4-4-4----2--2-2--2-2-2----6--6-6--6-6-6----4--4-4--4-4-4---------|
A|--2--2-2--2-2-2----2--2-2--2-2-2----6--6-6--6-6-6----4--4-4--4-4-4---------|
E|-------------------0--0-0--0-0-0----4--4-4--4-4-4----2--2-2--2-2-2---------|
 1                                        Memories and battle
 2   scars                                             Yeah!
 3    In  the        end, we'll both  know who we       are, a

  (x1)
e|---------------------------------------------------------------------------|
B|---------------------------------------------------------------------------|
G|----------------------------------------4----------------------------------|
D|--2----------------5------------4-------4--  LET RING  --------------------|
A|--2--  LET RING  --5------------4-------2----------------------------------|
E|--0----------------3------------2------------------------------------------|
 1  body full of     memories and battle scars
Tap to rate this tab
# A B C D E F G H I J K L M N O P Q R S T U V W X Y Z