Song name
# A B C D E F G H I J K L M N O P Q R S T U V W X Y Z

New Found Glory - Drill It In My Brain tab

------------------------------------------------------------------------------
		DRILL IT IN MY BRAIN - NEW FOUND GLORY
------------------------------------------------------------------------------

Tabbed by : Boris Paskhaver (bigbadb)
Email     : bp771@nyu.edu

Tuning: Standard 
	Low to High (EADGBe)

INTRO / VERSE (0:01)

  (x5)
e|---------------------------------------------------------------------------|
B|---------------------------------------------------------------------------|
G|-------3-3-3-3-3-------3-3-3-3-3-------3-3-3-3-3--5-5--3-3-3-3-3-----------|
D|--3-3--3-3-3-3-3--3-3--3-3-3-3-3--3-3--3-3-3-3-3--5-5--3-3-3-3-3-----------|
A|--3-3--1-1-1-1-1--3-3--1-1-1-1-1--3-3--1-1-1-1-1--3-3--1-1-1-1-1-----------|
E|--1-1-------------1-1-------------1-1--------------------------------------|
 3   I woke up      Saturday        look in          wanna see my
 4        Forgot    thing that you  needing space    how I keep
 5   Oh oh, how did I survive the   Two wrongs don't right here at all

  (x1)
e|---------------------------------------------------------------------------|
B|---------------------------------------------------------------------------|
G|-------3-3-3-3-3-------3-3-3-3-3-------3-3-3-3-3--5------------------------|
D|--3-3--3-3-3-3-3--3-3--3-3-3-3-3--3-3--3-3-3-3-3--5-- LET RING  -----------|
A|--3-3--1-1-1-1-1--3-3--1-1-1-1-1--3-3--1-1-1-1-1--3------------------------|
E|--1-1-------------1-1-------------1-1--------------------------------------|
 1   Oh oh, how did I survive the   Don't          that            You keep

CHORUS ONE (0:38)

  (x2)
e|---------------------------------------------------------------------------|
B|---------------------------------------------------------------------------|
G|-------------------3-3-3-3-3-3-3-3--5-5-5-5-5-5-5-5--3-3-3-3-5-5-5-5-------|
D|--3-3-3-3-3-3-3-3--3-3-3-3-3-3-3-3--5-5-5-5-5-5-5-5--3-3-3-3-5-5-5-5-------|
A|--3-3-3-3-3-3-3-3--1-1-1-1-1-1-1-1--3-3-3-3-3-3-3-3--1-1-1-1-3-3-3-3-------|
E|--1-1-1-1-1-1-1-1----------------------------------------------------------|
 1  Bringing me down know I let you   Drill it in my   won't forget to
 2  Hold you back    don't deserve     Wanting you     the more I know you

RIFF (0:50)

  (x1) (Bass)
e|---------------------------------------------------------------------------|
B|---------------------------------------------------------------------------|
G|---------------------------------------------------------------------------|
D|---------------------------------------------------------------------------|
A|-------1-1-1-1-1-------1-1-1-1-1-------1-1-1-1-1--3-3--1-1-1-1-1-----------|
E|--1-1-------------1-1-------------1-1--------------------------------------|

VERSE TWO (0:57)

  (x3)
e|---------------------------------------------------------------------------|
B|---------------------------------------------------------------------------|
G|-------3-3-3-3-3-------3-3-3-3-3-------3-3-3-3-3--5-5--3-3-3-3-3-----------|
D|--3-3--3-3-3-3-3--3-3--3-3-3-3-3--3-3--3-3-3-3-3--5-5--3-3-3-3-3-----------|
A|--3-3--1-1-1-1-1--3-3--1-1-1-1-1--3-3--1-1-1-1-1--3-3--1-1-1-1-1-----------|
E|--1-1-------------1-1-------------1-1--------------------------------------|
 1   I   could be falling to pieces you wouldn't    if I was at your
 2  feet. If you  constant        constant          you always looked
 3  Me, oh oh,     took me             but I knew   moment I knew her

  (x1)
e|---------------------------------------------------------------------------|
B|---------------------------------------------------------------------------|
G|-------3-3-3-3-3-------3-3-3-3-3-------3-3-3-3-3--5----------3-------------|
D|--3-3--3-3-3-3-3--3-3--3-3-3-3-3--3-3--3-3-3-3-3--5-- RING --3-- RING -----|
A|--3-3--1-1-1-1-1--3-3--1-1-1-1-1--3-3--1-1-1-1-1--3----------1-------------|
E|--1-1-------------1-1-------------1-1--------------------------------------|
 1      And         in like that   can't we lay on  backs      times we had

CHORUS TWO (1:24)

  (x4)
e|---------------------------------------------------------------------------|
B|---------------------------------------------------------------------------|
G|-------------------3-3-3-3-3-3-3-3--5-5-5-5-5-5-5-5--3-3-3-3-5-5-5-5-------|
D|--3-3-3-3-3-3-3-3--3-3-3-3-3-3-3-3--5-5-5-5-5-5-5-5--3-3-3-3-5-5-5-5-------|
A|--3-3-3-3-3-3-3-3--1-1-1-1-1-1-1-1--3-3-3-3-3-3-3-3--1-1-1-1-3-3-3-3-------|
E|--1-1-1-1-1-1-1-1----------------------------------------------------------|
 1  Bringing me down know I let you   Drill it in my    won't forget to
 2  Hold you back    don't deserve    Wanting you       more   I know
 3  Bringing me down know I let you   Drill it in my    won't forget to
 4  Hold you back    don't deserve    Wanting you       more   I know

BRIDGE (1:49)

  (x2)
e|------------------------------|
B|------------------------------|
G|--7-7-7--3-3-3------5--3-3-3--|
D|--7-7-7--3-3-3--3-3-5--3-3-3--|
A|--5-5-5--1-1-1--3-3-3--1-1-1--|
E|----------------1-1-----------|
 1  Now I finally found you
 2  Where in the world have

  (x1)
e|---------------------------------------------------------------------------|
B|---------------------------------------------------------------------------|
G|--7-7-7-7-3-3-3-3---------5-5-5-5----7-7-7--3-3-3--------------------------|
D|--7-7-7-7-3-3-3-3-3-3-3-3-5-5-5-5----7-7-7--3-3-3--3-----------------------|
A|--5-5-5-5-1-1-1-1-3-3-3-3-3-3-3-3----5-5-5--1-1-1--3--  LET RING  ---------|
E|------------------1-1-1-1--------------------------1-----------------------|
 1   I      let       I  re - gret  be-tween   us   again

BREAKDOWN (2:02):

  (x1)
e|---------------------------------------------------------------------------|
B|---------------------------------------------------------------------------|
G|-------3-3-3-3-3----------------------3-3-3-3-3----------------------------|
D|--3-3--3-3-3-3-3--3-3--3-3--2----3-3--3-3-3-3-3--3-3--3-3------------------|
A|--3-3--1-1-1-1-1--3-3--3-3--2----3-3--1-1-1-1-1--3-3--3-3------------------|
E|--1-1-------------1-1--1-1--0----1-1-------------1-1--1-1------------------|
                                                   P.M  P.M
e|---------------------------------------------------------------------------|
B|---------------------------------------------------------------------------|
G|-------3-3-3-3-3----------------------3-3-3-3-3----------------------------|
D|--3-3--3-3-3-3-3--3-3--3-3--2----3-3--3-3-3-3-3--  LEAD RIFF  -------------|
A|--3-3--1-1-1-1-1--3-3--3-3--2----3-3--1-1-1-1-1----------------------------|
E|--1-1-------------1-1--1-1--0----1-1---------------------------------------|
 1       Nothing                              will come between us

e|----------------------------------------------------------------------------------|
B|----------------------------------------------------------------------------------|
G|-------3-3-3-3-3----------------------3-3-3-3-3-----------------------------------|
D|--3-3--3-3-3-3-3--3-3--3-3--2----3-3--3-3-3-3-3--5-5-7-7-8-8-10-10-10-10-8-8-7-7--|
A|--3-3--1-1-1-1-1--3-3--3-3--2----3-3--1-1-1-1-1-----------------------------------|
E|--1-1-------------1-1--1-1--0----1-1----------------------------------------------|
 1        Nothing                             Will come between us

CHORUS BUILDUP (2:23):

  (x1 - Light)
e|---------------------------------------------------------------------------|
B|---------------------------------------------------------------------------|
G|-------------------3-3-3-3-3-3-3-3--5-5-5-5-5-5-5-5--3-3-3-3-5-5-5-5-------|
D|--3-3-3-3-3-3-3-3--3-3-3-3-3-3-3-3--5-5-5-5-5-5-5-5--3-3-3-3-5-5-5-5-------|
A|--3-3-3-3-3-3-3-3--1-1-1-1-1-1-1-1--3-3-3-3-3-3-3-3--1-1-1-1-3-3-3-3-------|
E|--1-1-1-1-1-1-1-1----------------------------------------------------------|
 1  Bringing me down  know I let you   Drill it in my    won't forget

e|---------------------------------------------------------------------------|
B|---------------------------------------------------------------------------|
G|-------------------3----------------5-5-5-5-5-5-5-5--3---------------------|
D|--3----------------3-- LET RING ----5-5-5-5-5-5-5-5--3-- STOP -------------|
A|--3-- LET RING ----1----------------3-3-3-3-3-3-3-3--1---------------------|
E|--1------------------------------------------------------------------------|
                                      P.M------------|
 1  Hold you back    don't deserve    Wanting you       more   I know you keep

FINAL CHORUS (2:35)

  (x4)
e|---------------------------------------------------------------------------|
B|---------------------------------------------------------------------------|
G|-------------------3-3-3-3-3-3-3-3--5-5-5-5-5-5-5-5--3-3-3-3-5-5-5-5-------|
D|--3-3-3-3-3-3-3-3--3-3-3-3-3-3-3-3--5-5-5-5-5-5-5-5--3-3-3-3-5-5-5-5-------|
A|--3-3-3-3-3-3-3-3--1-1-1-1-1-1-1-1--3-3-3-3-3-3-3-3--1-1-1-1-3-3-3-3-------|
E|--1-1-1-1-1-1-1-1----------------------------------------------------------|
 1  Bringing me down know I let you   Drill it in my    won't forget to
 2  Hold you back    don't deserve    Wanting you more  more   I know
 3  Drill it in my   Drill it in my   Drill it in my    won't forget to

e|---------------------------------------------------------------------------|
B|---------------------------------------------------------------------------|
G|-------------------3-3-3-3-3-3-3-3--5-5-5-5-5-5-5-5--3---------------------|
D|--3-3-3-3-3-3-3-3--3-3-3-3-3-3-3-3--5-5-5-5-5-5-5-5--3-- LET RING ---------|
A|--3-3-3-3-3-3-3-3--1-1-1-1-1-1-1-1--3-3-3-3-3-3-3-3--1---------------------|
E|--1-1-1-1-1-1-1-1----------------------------------------------------------|
 4   Hold you back    don't deserve    Wanting you      more   I know

OUTRO (3:01)

  (x1)
e|---------------------------------------------------------------------------|
B|---------------------------------------------------------------------------|
G|-------3-3-3-3-3-------3-3-3-3-3-------3-3-3-3-3---------------------------|
D|--3-3--3-3-3-3-3--3-3--3-3-3-3-3--3-3--3-3-3-3-3----3----------------------|
A|--3-3--1-1-1-1-1--3-3--1-1-1-1-1--3-3--1-1-1-1-1----3----------------------|
E|--1-1-------------1-1-------------1-1---------------1----------------------|
    P.M             P.M             P.M
Tap to rate this tab
# A B C D E F G H I J K L M N O P Q R S T U V W X Y Z