Song name
# A B C D E F G H I J K L M N O P Q R S T U V W X Y Z

New Found Glory - Radiosurgery tab

------------------------------------------------------------------------------
			RADIOSURGERY - NEW FOUND GLORY
------------------------------------------------------------------------------

Tabbed by : Boris Paskhaver (bigbadb)
Email     : bp771@nyu.edu

Tuning: Standard 
	Low to High (EADGBe)

INTRO / MAIN RIFF (0:02)

  (x9)
e|----------------------------------------|
B|----------------------------------------|
G|--------------8/9\8--------------8/9\8--|
D|--9-9-9--x-x--8/9\8--7-7-7--x-x--8/9\8--|
A|--9-9-9--x-x--6/7\6--7-7-7--x-x--6/7\6--|
E|--7-7-7--x-x---------5-5-5--x-x---------|

PRECHORUS ALTERATION (0:33)

e|----------------------------------------|
B|----------------------------------------|
G|--------------8/9\8---------------------|
D|--9-9-9--x-x--8/9\8--7--7--7-7-7--------|
A|--9-9-9--x-x--6/7\6--7--7--7-7-7--------|
E|--7-7-7--x-x---------5--5--5-5-5--------|

CHORUS ONE (0:36)

  (x2)
e|---------------------------------------------------------------------------|
B|---------------------------------------------------------------------------|
G|----------9-9-9-9---------9-9-9-9----------9-9-9-9-------------------------|
D|--9-9-9-9-9-9-9-9-7-7-7-7-9-9-9-9--9-9-9-9-9-9-9-9-7-7-7-7-4-4-4-4---------|
A|--9-9-9-9-7-7-7-7-7-7-7-7-7-7-7-7--9-9-9-9-7-7-7-7-7-7-7-7-4-4-4-4---------|
E|--7-7-7-7---------5-5-5-5----------7-7-7-7---------5-5-5-5-2-2-2-2---------|
 1    I     can't get your   outta        It makes my brain    hurt
 2    I     can't get your   outta        It makes my brain    hurt

  (x1)
e|-----------------------------------|
B|-----------------------------------|
G|-----------------------------------|
D|--7-7-7-7-4-4-4-4-7-7-7-7-4-4-4-4--|
A|--7-7-7-7-4-4-4-4-7-7-7-7-4-4-4-4--|
E|--5-5-5-5-2-2-2-2-5-5-5-5-2-2-2-2--|
 1    I      need    radio surgery

MAIN RIFF (0:52)

  (x1)
e|---------------------------------------------------------------------------|
B|---------------------------------------------------------------------------|
G|--------------8/9\8--------------8/9\8--------------8/9\8------------------|
D|--9-9-9--x-x--8/9\8--7-7-7--x-x--8/9\8--9-9-9--x-x--8/9\8--7---------------|
A|--9-9-9--x-x--6/7\6--7-7-7--x-x--6/7\6--9-9-9--x-x--6/7\6--7--  LET RING --|
E|--7-7-7--x-x---------5-5-5--x-x---------7-7-7--x-x---------5---------------|
 1                      Radio  surgery

VERSE TWO, PART ONE (0:59)

  (Bass)
e|---------------------------------------------------------------------------|
B|---------------------------------------------------------------------------|
G|---------------------------------------------------------------------------|
D|---------------------------------------------------------------------------|
A|-------------6/7\6-------------6/7\6-------------6/7\6-------------6/7/6---|
E|--7-7-7-x-x---------5-5-5-x-x---------7-7-7-x-x---------5-5-5-x-x----------|
 1  I'm hearing voices     there        no one     could   be

  (Guitar)
e|---------------------------------------------------------------------------|
B|---------------------------------------------------------------------------|
G|-----------------------------------------------------------9---------------|
D|---------------------------------------------------** TREMOLO PICK ** -----|
A|---------------------------------------------------------------------------|
E|---------------------------------------------------------------------------|

GUITAR COMES BACK (1:05)

  (x1) (1:05)
e|---------------------------------------------------------------------------|
B|---------------------------------------------------------------------------|
G|--------------8/9\8--------------8/9\8--------------8/9\8------------------|
D|--9-9-9--x-x--8/9\8--7-7-7--x-x--8/9\8--9-9-9--x-x--8/9\8--7--7--7-7-7-----|
A|--9-9-9--x-x--6/7\6--7-7-7--x-x--6/7\6--9-9-9--x-x--6/7\6--7--7--7-7-7-----|
E|--7-7-7--x-x---------5-5-5--x-x---------7-7-7--x-x---------5--5--5-5-5-----|
 1  Medication         stop      through  me          Yeah

CHORUS TWO (1:12):

  (x2)
e|---------------------------------------------------------------------------|
B|---------------------------------------------------------------------------|
G|----------9-9-9-9---------9-9-9-9----------9-9-9-9-------------------------|
D|--9-9-9-9-9-9-9-9-7-7-7-7-9-9-9-9--9-9-9-9-9-9-9-9-7-7-7-7-4-4-4-4---------|
A|--9-9-9-9-7-7-7-7-7-7-7-7-7-7-7-7--9-9-9-9-7-7-7-7-7-7-7-7-4-4-4-4---------|
E|--7-7-7-7---------5-5-5-5----------7-7-7-7---------5-5-5-5-2-2-2-2---------|
 1    I     can't get your   outta        It makes my brain    hurt
 2    I     can't get your   outta        It makes my brain    hurt

  (x1)
e|-----------------------------------|
B|-----------------------------------|
G|-----------------------------------|
D|--7-7-7-7-4-4-4-4-7-7-7-7-4-4-4-4--|
A|--7-7-7-7-4-4-4-4-7-7-7-7-4-4-4-4--|
E|--5-5-5-5-2-2-2-2-5-5-5-5-2-2-2-2--|
 1    I      need    radio surgery

SOLO (1:29):

  (x1) * Rhythm plays main riff underneath ** Add vibrato to beginning 9's
e|---------------------------------------------------------------------------|
B|---------------------------------------------------------------------------|
G|--9--8-----------9--8-----------9--8-------------8-------9---9-8-----------|
D|--------11--9----------11--9----------11--9---11---7---7---7---------------|
A|---------------------------------------------------------------------------|
E|---------------------------------------------------------------------------|

e|---------------------------------------------------------------------------|
B|--------------------------------------9--7---------------------------------|
G|--9^10-8--------11-11-9-9-8-8-8----8-----8-------9---9-8-------------------|
D|---------11-9--------------------------------7-7---7-----------------------|
A|---------------------------------------------------------------------------|
E|---------------------------------------------------------------------------|

BRIDGE (1:42)

  (x2)
e|---------------------------------------------------------------------------|
B|---------------------------------------------------------------------------|
G|------------------------------------9-9-9-9-9-9-9-9-9-9-9-9-9-9-9-9--------|
D|--6-6-6-6-6-6-6-6--9-9-9-9-9-9-9-9--9-9-9-9-9-9-9-9-9-9-9-9-9-9-9-9--------|
A|--6-6-6-6-6-6-6-6--9-9-9-9-9-9-9-9--7-7-7-7-7-7-7-7-7-7-7-7-7-7-7-7--------|
E|--4-4-4-4-4-4-4-4--7-7-7-7-7-7-7-7-----------------------------------------|
 1  My best friends   even know that   mind's going thousand miles an
 2  I climb walls     see the world    time slows down, minutes turn
 
  (x1)
e|-----------------------------------------------------------------------------------|
B|-----------------------------------------------------------------------------------|
G|-----------------------------------------------------------------------------------|
D|--6-6-6-6-6-6-6-6-9-9-9-9-9-9-9-9-11-11-11-11-11-11-11-11-11-11-11-11-11-11-11-11--|
A|--6-6-6-6-6-6-6-6-9-9-9-9-9-9-9-9-11-11-11-11-11-11-11-11-11-11-11-11-11-11-11-11--|
E|--4-4-4-4-4-4-4-4-7-7-7-7-7-7-7-7--9--9--9--9--9--9--9--9--9--9--9--9--9--9--9--9--|
 1  I force myself to open my eyes      Lose control, hope turns to madness

  (x1)
e|-----------------------------------------------------------------------------------|
B|-----------------------------------------------------------------------------------|
G|----------------------------------------------------------11-11-11-11-11-11-11-11--|
D|--6-6-6-6-6-6-6-6-9-9-9-9-9-9-9-9-11-11-11-11-11-11-11-11-11-11-11-11-11-11-11-11--|
A|--6-6-6-6-6-6-6-6-9-9-9-9-9-9-9-9-11-11-11-11-11-11-11-11--9--9--9--9--9--9--9--9--|
E|--4-4-4-4-4-4-4-4-7-7-7-7-7-7-7-7--9--9--9--9--9--9--9--9--------------------------|
 1  I can't stop        walking           backwards

INTRO RIFF (2:09)

  (x2)
e|----------------------------------------|
B|----------------------------------------|
G|--------------8/9\8--------------8/9\8--|
D|--9-9-9--x-x--8/9\8--7-7-7--x-x--8/9\8--|
A|--9-9-9--x-x--6/7\6--7-7-7--x-x--6/7\6--|
E|--7-7-7--x-x---------5-5-5--x-x---------|
 2                     Yeah!

FINAL CHORUS (2:16)

  (x4)
e|---------------------------------------------------------------------------|
B|---------------------------------------------------------------------------|
G|----------9-9-9-9---------9-9-9-9----------9-9-9-9-------------------------|
D|--9-9-9-9-9-9-9-9-7-7-7-7-9-9-9-9--9-9-9-9-9-9-9-9-7-7-7-7-4-4-4-4---------|
A|--9-9-9-9-7-7-7-7-7-7-7-7-7-7-7-7--9-9-9-9-7-7-7-7-7-7-7-7-4-4-4-4---------|
E|--7-7-7-7---------5-5-5-5----------7-7-7-7---------5-5-5-5-2-2-2-2---------|
 1    I     can't get your   outta        It makes my brain    hurt
 2    I     can't get your   outta                    Radisurgery
 3    I'm broken    nervous  wreck    Heart  beating    my    chest
 4    I     can't get your   outta                    I    need

  (x1)
e|-------------------|
B|-------------------|
G|-------------------|
D|--7-7-7-7-4-4-4-4--|
A|--7-7-7-7-4-4-4-4--|
E|--5-5-5-5-2-2-2-2--|
 1   Radio surgery

ONE MORE TIME (2:44)

  (x1)
e|--------------------------------------------------------------------------------|
B|--------------------------------------------------------------------------------|
G|--------------8/9\8--------------8/9\8----------------8/9\8---------------------|
D|--9-9-9--x-x--8/9\8--7-7-7--x-x--8/9\8----9-9-9--x-x--8/9\8--7--7--7------------|
A|--9-9-9--x-x--6/7\6--7-7-7--x-x--6/7\6----9-9-9--x-x--6/7\6--7--7--7------------|
E|--7-7-7--x-x---------5-5-5--x-x-----------7-7-7--x-x---------5--5--5------------|
 1                       Radio  surgery
Tap to rate this tab
# A B C D E F G H I J K L M N O P Q R S T U V W X Y Z