Song name
# A B C D E F G H I J K L M N O P Q R S T U V W X Y Z

New Found Glory - Summer Fling Dont Mean A Thing tab

Into
e|---------------------------------------------------------------|
B|---------------------------------------------------------------|
G|--6-33----3-6-6-3-6-33----3-6-6-3-6-33----3-6-6-3-6-33----3-6--|
D|--6-33-44-3-6-6-3-6-33-44-3-6-6-3-6-33-44-3-6-6-3-6-33-44-3-6--|
A|--4-11-44-1-4-4-1-4-11-44-1-4-4-1-4-11-44-1-4-4-1-4-11-44-1-4--|
E|-------22--------------22--------------22--------------22------|


Verse 1
e|------------|     e|-------------------------------------------------------|
B|------------|     B|-------------------------------------------------------|
G|------------| 1x  G|--------------------------------------------6666-6666--| 2x
D|--6-----6---|     D|--4-44--4-44--4-44--4-44--4-44--4-44--4-44--6666-6666--|
A|--6~----6~--|     A|--4-44--4-44--4-44--4-44--4-44--4-44--4-44--4444-4444--|
E|--4-----4---|     E|--2-22--2-22--2-22--2-22--2-22--2-22--2-22-------------|
                          **    **    **    **    **    **    **
Choures
e|--------------------------------------------------------------|
B|--------------------------------------------------------------|
G|--6-33----3-6-6-3-6-33----3-6-6-3-6-33----3-6-6-3-6-33-44-----|
D|--6-33-44-3-6-6-3-6-33-44-3-6-6-3-6-33-44-3-6-6-3-6-33-44-44--|
A|--4-11-44-1-4-4-1-4-11-44-1-4-4-1-4-11-44-1-4-4-1-4-11-22-44--|
E|-------22--------------22--------------22-----------------22--|

Verse 2
e|------------|
B|------------|
G|--6-----6---|
D|--6~----6~--|
A|--4-----4---|
E|------------|

Verse 2 Guitar 1
e|--9-------11---9---9---9---11---11----|
B|----7-6-7----7---7---7---7----7----7--|
G|--------------------------------------| 2x
D|--------------------------------------|
A|--------------------------------------|
E|--------------------------------------|

Verse 2 Guitar 2
e|-------------------------------------------------------|
B|-------------------------------------------------------|
G|--------------------------------------------6666-6666--| 2x
D|--4-44--4-44--4-44--4-44--4-44--4-44--4-44--6666-6666--|
A|--4-44--4-44--4-44--4-44--4-44--4-44--4-44--4444-4444--|
E|--2-22--2-22--2-22--2-22--2-22--2-22--2-22-------------|
      **    **    **    **    **    **    **
Choures
e|---------------------------------------------------------------|
B|---------------------------------------------------------------|
G|--6-33----3-6-6-3-6-33----3-6-6-3-6-33----3-6-6-3-6-33----3-6--|
D|--6-33-44-3-6-6-3-6-33-44-3-6-6-3-6-33-44-3-6-6-3-6-33-44-3-6--|
A|--4-11-44-1-4-4-1-4-11-44-1-4-4-1-4-11-44-1-4-4-1-4-11-44-1-4--|
E|-------22--------------22--------------22--------------22------|

e|------------------------------|
B|------------------------------|
G|--6-88-66-8-10-6-88-1111-8-6--| 2x
D|--x-xx-xx-x-x--x-xx-x-x--x-x--|
A|--4-66-44-6-8--4-66-9-9--6-4--|
E|------------------------------|

Solo Guitar 2
e|------------------------|
B|------------------------|
G|--66666666--------------| Slowly release palm mute.
D|--66666666--------------|
A|--44444444--Pick-Slide--|
E|------------------------|
    ********
Solo Guitar 1
e|-------------------------2-2-2-2-1-1-1-1-----------------------------|
B|--6-4-2-4-2---2--6-6-4-2-----------------4-2--6-6-4-2---2-4-6-4-2-2--|
G|------------3-----------------------------------------1--------------|
D|---------------------------------------------------------------------|
A|---------------------------------------------------------------------|
E|---------------------------------------------------------------------|

e|----------2-2-2-2-1-1-1-1-----------------------------|
B|--6-6-4-2-----------------4-2--6-6-4-2---2-4-6-4-2-2--|
G|---------------------------------------1--------------|
D|------------------------------------------------------|
A|------------------------------------------------------|
E|------------------------------------------------------|


Verse 2 Guitar 1
e|--9-------11---9---9---9---11---11----|
B|----7-6-7----7---7---7---7----7----7--|
G|--------------------------------------| 2x
D|--------------------------------------|
A|--------------------------------------|
E|--------------------------------------|

Verse 2 Guitar 2
e|-------------------------------------------------------|     e|-----------|
B|-------------------------------------------------------|     B|-----------|
G|--------------------------------------------6666-6666--| 2x  G|--6-6-6-6--|
D|--4-44--4-44--4-44--4-44--4-44--4-44--4-44--6666-6666--|     D|--6-6-6-6--| 2x
A|--4-44--4-44--4-44--4-44--4-44--4-44--4-44--4444-4444--|     A|--4-4-4-4--|
E|--2-22--2-22--2-22--2-22--2-22--2-22--2-22-------------|     E|-----------|
      **    **    **    **    **    **    **

Brige
e|-------------------------------|
B|-------------------------------|
G|--6---------------------6--66--|
D|--6~--------------------6--66--|
A|--4---------------------4--44--|
E|-------------------------------|


Choures
e|---------------------------------------------------------------|
B|---------------------------------------------------------------|
G|--6-33----3-6-6-3-6-33----3-6-6-3-6-33----3-6-6-3-6-33----3-6--|
D|--6-33-44-3-6-6-3-6-33-44-3-6-6-3-6-33-44-3-6-6-3-6-33-44-3-6--|
A|--4-11-44-1-4-4-1-4-11-44-1-4-4-1-4-11-44-1-4-4-1-4-11-44-1-4--|
E|-------22--------------22--------------22--------------22------|

e|------------------------------|
B|------------------------------|
G|--6-88-66-8-10-6-88-1111-8-6--| 2x
D|--x-xx-xx-x-x--x-xx-x-x--x-x--|
A|--4-66-44-6-8--4-66-9-9--6-4--|
E|------------------------------|

Outro
e|--------------|      e|-----------------------------------------|
B|--------------|      B|-----------------------------------------|
G|--6-33-44-----| 2x   G|--6-88-66-8-10-6-88-1111-8-6--6-3---3-6--|
D|--6-33-44-44--|      D|--x-xx-xx-x-x--x-xx-x-x--x-x--6-3-4-3-6--|
A|--4-11-22-44--|      A|--4-66-44-6-8--4-66-9-9--6-4--4-1-4-1-4--|
E|----------22--|      E|----------------------------------2------|
Tap to rate this tab
# A B C D E F G H I J K L M N O P Q R S T U V W X Y Z