Guitaretab - guitar tabs
Song name
# A B C D E F G H I J K L M N O P Q R S T U V W X Y Z

New Found Glory - The Story So Far tab

-------------------------------------------------------------------------------
			     The Story So Far - New Found Glory
-------------------------------------------------------------------------------
Tabbed by: Dalton
Email: CheesyChubs238@aol.com

Tuning: Standard

Hey, didn't see many tabs for this great song so I tabbed out the correct version from 
book.
Please rate and comment. And tell me if you think i should tab the whole album, because 
have the book. Enjoy!

Verse
e|------------------------------------------------------------------------------|
A|------------------------------------------------------------------------------|
D|------------------------------------------------------------------------------|
G|------------------------------------------------------------------------------|
B|--3--3--3-----(6x)----7--7--7--5~--(4x)---------------------------------------|
E|-----------1~-----------------------------------------------------------------|


Pre-Chorus
e|----------------------------------------------1111----------------------------|
A|----------------------------------------------1111----------------------------|
D|--222---5555----------55---------222---5555---2222---55-----------------------|
G|--222---5555---3333---55---555---222---5555---3333---55---555-----------------|
B|--000---3333---3333---33---555---000---3333---3333---33---555-----------------|
E|---------------1111--------333----------------1111--------333-----------------|
PM  ...   ....   ....   ..   ...   ...   ....   ....   ..   ...

e|----------------------------------------------22222222---11111111-------------|
A|----------------------------------------------33333333---11111111-------------|
D|--222---5555----------55---------222---5555---22222222---22222222-------------|
G|--222---5555---3333---55---555---222---5555--------------33333333-------------|
B|--000---3333---3333---33---555---000---3333--------------33333333-------------|
E|---------------1111--------333---------------------------11111111-------------|
PM  ...   ....   ....   ..   ...   ...   ....


Chorus
e|------------------------------------------------------------------------------|
A|------------------------------------------------------------------------------|
D|--5555----------5555----------2222----------2222----------5555----------5555--|
G|--5555---3333---5555---3333---2222---3333---2222---5555---5555---3333---5555--|
B|--3333---3333---3333---3333---0000---3333---0000---5555---3333---3333---3333--|
E|---------1111----------1111----------1111----------3333----------1111---------|

e|------------------------------------------------------------------------------|
A|------------------------------------------------------------------------------|
D|---------2222----------2222---------------------------------------------------|
G|--3333---2222---3333---2222---5555--------------------------------------------|
B|--3333---0000---3333---0000---5555--------------------------------------------|
E|--1111----------1111----------3333--------------------------------------------|

[ Tab from: http://www.guitaretab.com/n/new-found-glory/30270.html ]
Verse 2
e|------------------------------------------------------------------------------|
A|------------------------------------------------------------------------------|
D|--5--5--5--5------------------------------------------------------------------|
G|--------------(6x)------------------------------------------------------------|
B|--3--3--3--3------------------------------------------------------------------|
E|------------------------------------------------------------------------------|


Riff A
e|------------------------------------------------------------------------------|
A|--------8--8--6--6--5-----------5-----------5----------8--8--6--6--5----------|
D|-----5-----------------7--5--7-----7--5--7----------5-------------------------|
G|--5----------------------------------------------5----------------------------|
B|------------------------------------------------------------------------------|
E|------------------------------------------------------------------------------|

e|------------------------------------------------------------------------------|
A|-----------5------------------------8--8--6--6--5-----------5----------5------|
D|--7--5--7-----7--5--5h7--5-------5-----------------7--5--7-----7--5--7--------|
G|------------------------------5-----------------------------------------------|
B|------------------------------------------------------------------------------|
E|------------------------------------------------------------------------------|

e|------------------------------------------------------------------------------|
A|------------8----8----6----6----5-------------------5-------------------------|
D|-------5-----------------------------7----5----7---------7----5----5h7----5---|
G|--5---------------------------------------------------------------------------|
B|------------------------------------------------------------------------------|
E|------------------------------------------------------------------------------|


Bridge
e|------------------------------------------------------------------------------|
A|------------------------------------------------------------------------------|
D|--0--------0--------0--------0--------0--------0--------0--------0------------|
G|--3-(15x)--5-(15x)--7-(15x)--5-(15x)--3-(15x)--5-(15x)--7-(15x)--5-(15x)------|
B|--3--------5--------7--------5--------3--------5--------7--------5------------|
E|--1--------3--------5--------3--------1--------3--------5--------3------------|


Solo
e|----------------------------------8-------------------------------------------|
A|--------8-----------------------8---8-------------8--8-5-5--------------------|
D|--5--5-----5-------5--5-4-4-5-5---------------5------------7-7-5-5------------|
G|------------------------------------------------------------------------------|
B|------------------------------------------------------------------------------|
E|------------------------------------------------------------------------------|

e|------------------------------------------------------------------------------|
A|-------------------8-8---5----------------------------------------------------|
D|--5-5---5--4-4-5-5-------------7----5--------5-----5-----7---5----------------|
G|------------------------------------------5-----5-----5-----------------------|
B|------------------------------------------------------------------------------|
E|------------------------------------------------------------------------------|


Ending (after Riff A)
e|---------------|
A|---------------|
D|--5--5--5------|
G|-----------5---|
B|---------------|
E|---------------|

Order:
Verse
Pre-chorus
Chorus
Verse 2
Pre-chorus
Chorus
Riff A
Bridge
Solo
Pre-Chorus
Chorus
Riff A
End
Related for The Story So Far tab
Advertisement will be closed in 10 seconds