Song name
# A B C D E F G H I J K L M N O P Q R S T U V W X Y Z

New Found Glory - Ready Aim Fire tab

 -------------------------------------------------------------------------------
			     Ready, Aim, Fire! - New Found Glory
-------------------------------------------------------------------------------
Tabbed by:K. Shimmin

Tuning:Standard (EADGBe)

Intro: (3 Times)
e|--99-979-11-7-9------------------------------------------------------------|
B|7---------------11\9-7-7------11-7-9--9p5 ---------------------------------|
G|------------------------8-888----------------------------------------------|
D|---------------------------------------------------------------------------|
A|---------------------------------------------------------------------------|
E|---------------------------------------------------------------------------|
	  (4th Time)
e|--99-979-11-7-9------------------------------------------------------------|
B|7---------------11\9-7-7------11-9-----------------------------------------|
G|------------------------8-888----------------------------------------------|
D|---------------------------------------------------------------------------|
A|---------------------------------------------------------------------------|
E|---------------------------------------------------------------------------|

Verses:
e|---------------------------------------------------------------------------|
B|---------------------------------------------------------------------------|
G|--------------------5-x-5-xxx----------------------------------------------|
D|5-x-5-xxx-5-x-5-xxx-5-x-5-xxx-7-x-7-xxx------------------------------------|
A|5-x-5-xxx-5-x-5-xxx-3-x-3-xxx-7-x-7-xxx------------------------------------|
E|3-x-3-xxx-3-x-3-xxx-----------5-x-5-xxx------------------------------------|

e|---------------------------------------------------------------------------|
B|---------------------------------------------------------------------------|
G|--------------------5-x-5-xxx-7-x-7-xxx------------------------------------|
D|5-x-5-xxx-5-x-5-xxx-5-x-5-xxx-7-x-7-xxx------------------------------------|
A|5-x-5-xxx-5-x-5-xxx-3-x-3-xxx-5-x-5-xxx------------------------------------|
E|3-x-3-xxx-3-x-3-xxx--------------------------------------------------------|

e|---------------------------------------------------------------------------|
B|---------------------------------------------------------------------------|
G|5555-555-4444-444--2222-222--2222-222--------------------------------------|
D|5555-555-4444-444--2222-222--2222-222--------------------------------------|
A|3333-333-2222-222--0000-000--0000-000--------------------------------------|
E|---------------------------------------------------------------------------|

e|---------------------------------------------------------------------------|
B|---------------------------------------------------------------------------|
G|5555-555-4444-444--7-7-7-7-7-----------------------------------------------|
D|5555-555-4444-444--7-7-7-7-7-----------------------------------------------|
A|3333-333-2222-222--5-5-5-5-5-----------------------------------------------|
E|---------------------------------------------------------------------------|
Chorus:(rhythm not shown)
e|---------------------------------------------------------------------------|
B|---------------------------------------------------------------------------|
G|---5-----7-----5-----7-----------------------------------------------------|
D|5--5--7--7--5--5--7--7-----------------------------------------------------|
A|5--3--7--5--5--3--7--5-----------------------------------------------------|
E|3-----5-----3-----5--------------------------------------------------------|
Bridge:(3x)
e|---------------------------------------------------------------------------|
B|---------------------------------------------------------------------------|
G|---------------------------------------5--52-222---------------------------|
D|5--5-(0)xxx--5--5(0)-xxx--5--5-(0)xxx--5--52-222--xxx----------------------|
A|5--5-(0)xxx--5--5(0)-xxx--5--5-(0)xxx--3--30-000--xxx----------------------|
E|3--3-(0)xxx--3--3(0)-xxx--3--3-(0)xxx-------------xxx----------------------|
	(1x)
e|---------------------------------------------------------------------------|
B|---------------------------------------------------------------------------|
G|---------------------------------------5555-2222---------------------------|
D|5--5-(0)xxx--5--5-(0)xxx--5--5-(0)xxx--5555-2222---------------------------|
A|5--5-(0)xxx--5--5-(0)xxx--5--5-(0)xxx--3333-0000---------------------------|
E|3--3-(0)xxx--3--3-(0)xxx--3--3-(0)xxx--------------------------------------|
	(1x)
e|---------------------------------------------------------------------------|
B|---------------------------------------------------------------------------|
G|5-----4-----2---------5-----4-----7-7-7-7-7----7-7-7--xx-xx-7-7------------|
D|5-----4-----2---------5-----4-----7-7-7-7-7----7-7-7--xx-xx-7-7------------|
A|3-----2-----0---------3-----2-----5-5-5-5-5----5-5-5--xx-xx-5-5------------|
E|---------------------------------------------------------------------------|

************************************

| /   slide up
| \   slide down
| h   hammer-on
| p   pull-off
| ~   vibrato
| +   harmonic
| x   Mute note
| b   Bend
| pb  Pre-bend
| br  Bend release
| pbr Pre-bend release
| brb Bend release bend

************************************
Tap to rate this tab
# A B C D E F G H I J K L M N O P Q R S T U V W X Y Z