Song name
# A B C D E F G H I J K L M N O P Q R S T U V W X Y Z

New Found Glory - Something I Call Personality tab

Something I Call Personality     -      New Found Glory(Mark Hoppus on Bass)

Intro
G-----------------|
D-----------------|
A-77--------------|
E-----55--22--55--|
        These two parts > X2
G---------------------|
D---------------------|
A-77------------------|
E-----55--22--5-0000--|

Verse
G----------------|
D----------------|  X2
A-77-------------|
E----55--22--55--|

G--------------------------------------|
D--------------------------------------|
A-----7-----------------------7--------|
E-000---000-5-000-2-000-5-000---000-5--|

Pre-Chorus  "I'd like to think, what I have is real"
G-------------------|
D-------------------|
A---7--------7------|
E-0---7-5-00---7-9--|

Chorus  "Sort this out on you own time"
G----------------------|
D----------------------|
A-----------4444-------|
E-0000-5555------2222--|

G----------------------|
D----------------------|
A----------------------|
E-0000-5555-7777-5555--|

G----------------------|
D----------------------|
A-----------4444-------|
E-0000-5555------2222--|

G-------------------|
D-------------------|
A-------------------|
E-0000-5555-7777-5--|

Intro
G-----------------|
D-----------------|
A-77--------------|
E-----55--22--55--|
        These two parts > X2
G---------------------|
D---------------------|
A-77------------------|
E-----55--22--5-0000--|

Verse
G----------------|
D----------------|   X2
A-77-------------|
E----55--22--55--|

G--------------------------------------|
D--------------------------------------|
A-----7-----------------------7--------|
E-000---000-5-000-2-000-5-000---000-5--|

Pre-Chorus  "I'd like to think, what I have is real"
G-------------------|
D-------------------|
A---7--------7------|
E-0---7-5-00---7-9--|

Chorus  "Sort this out on you own time"
G----------------------|
D----------------------|
A-----------4444-------|
E-0000-5555------2222--|
        These two parts > X4
G----------------------|
D----------------------|
A----------------------|
E-0000-5555-7777-5555--|

Bass Solo
G-----1----1--------------------|
D-2-4---2----4----4-2----2-4----|
A--------------0------0------0--|
E-------------------------------|
            These two parts > X2
G---1----1---------------2~--|
D-4---2----4----4-2----2-----|
A------------0------0--------|
E----------------------------|

Bridge
G--------------|
D--------------|  X4
A-------44-----|
E-00-55----22--|

Chorus  "Sort this out on you own time.."
G----------------------|
D----------------------|
A-----------4444-------|
E-0000-5555------2222--|
       These two parts > X3
G----------------------|
D----------------------|
A----------------------|
E-0000-5555-7777-5555--|

G----------------------|
D----------------------|
A-----------4444-------|
E-0000-5555------2222--|

G-------------------|
D-------------------|
A-------------------|
E-0000-5555-7777-5--|

Outro
G---------------------|
D---------------------|
A-777-----------------|
E------555--222--555--|

G-----------------------|
D-----------------------|
A-777-------------------|
E-----555-222-555-0000--|

G---------------------|
D---------------------|
A-777-----------------|
E------555--222--555--|

G--------------------------|
D--------------------------|
A-777----------------------|
E-----555-222-555-0000-50--|
Tap to rate this tab
# A B C D E F G H I J K L M N O P Q R S T U V W X Y Z