Song name
# A B C D E F G H I J K L M N O P Q R S T U V W X Y Z

New Found Glory - Forget Everything tab

-------------------------------------------------------------------------------
			     Forget Eeverything ~ New Found Glory
-------------------------------------------------------------------------------
Tabbed by: Neil Howard
Email: shellshocked182@gmail.com
AIM: shellshocked182

Band: New Found Glory
Song: Forget Everything
Album: Sticks and Stones

Ok, so this is like my 3rd tab ever so bear with me if they're are any mistakes.  Feel
to correct anything on this tab if it is wrong.  The muting in this song is kinda hard to
up on, but I did the best I could and think I have most of it right.  You'll have to 
closely for the timing.  Anyway, enjoy the tab.

Tuning: Standard (EADGBe)

Intro:
e|--------------------------------------------------------|
B|--------------------------------------------------------|
G|--------777-xx-999-xx-777--------xx-777-xx-9-9---xx-7777|
D|-777-xx-777-xx-999-xx-777-xx-777-xx-777-xx-9-9---xx-7777|
A|-777-xx-555-xx-777-xx-555-xx-777-xx-555-xx-7-7---xx-5555|
E|-555-xx-------------------xx-555------------------------|


Verse 1:
Can we pretend for one second that we are together?
What's the point of keeping my feelings at bay?
It takes a lot of me to get the nerve to wake up everyday.
e|------------------------------|
B|------------------------------|
G|------------------------------|
D|-xxxx-7-xxxx-4-xxxx-2-xxxx-2--|  4x
A|-xxxx-7-xxxx-4-xxxx-2-xxxx-2--|
E|-xxxx-5-xxxx-2-xxxx-0-xxxx-0--|


Pre-Chorus 1:
And what if I don't,
Would you even care?
Would you even care?
e|-----------|----------------------------|
B|-----------|----------------------------|
G|-----------|----------------------------|
D|-----------|-------------------9-x9-x9--|
A|-1212-11-9-|-12121212-11111111-9-x9-x9--|
E|-1010-9--7-|-10101010-9-9-9-9--7-x7-x7--|


Chorus 1:
Forget everything that we have done.
Erase me from your memory.
e|------------------------------------------------------------|
B|------------------------------------------------------------|
G|-----xx-777-xx-999-xx-777--------xx-777-xx-999-xx-777-xxxx--|
D|-777-xx-777-xx-999-xx-777-xx-777-xx-777-xx-999-xx-777-xxxx--|
A|-777-xx-555-xx-777-xx-555-xx-777-xx-555-xx-777-xx-555-xxxx--|
E|-555----------------------xx-555----------------------------|

Don't call, don't ask about me
Until the day hell freezes over.
e|------------------------------------------------------------|
B|------------------------------------------------------------|
G|-----xx-777-xx-999-xx-777-xx-----xx-777-xx-9-9---xx-7777----|
D|-777-xx-777-xx-999-xx-777-xx-777-xx-777-xx-9-9---xx-7777----|
A|-777-xx-555-xx-777-xx-555-xx-777-xx-555-xx-7-7---xx-5555----|
E|-555-------------------------555----------------------------|


Verse 2:
I can't remember the last time I saw you smile.
It might have been around this time last year.
It takes a lot of me to get the nerve to tell you everything is ok.
e|------------------------------|
B|------------------------------|
G|------------------------------|
D|-xxxx-7-xxxx-4-xxxx-2-xxxx-2--|  4x
A|-xxxx-7-xxxx-4-xxxx-2-xxxx-2--|
E|-xxxx-5-xxxx-2-xxxx-0-xxxx-0--|


Pre-Chorus 2:
And what if I don't,
Would you even care?
Would you even care?
e|-----------|----------------------------|
B|-----------|----------------------------|
G|-----------|----------------------------|
D|-----------|-------------------9-x9-x9--|
A|-1212-11-9-|-12121212-11111111-9-x9-x9--|
E|-1010-9--7-|-10101010-9-9-9-9--7-x7-x7--|


Chorus 2:
Forget everything that we have done.
Erase me from your memory.
e|------------------------------------------------------------|
B|------------------------------------------------------------|
G|-----xx-777-xx-999-xx-777--------xx-777-xx-999-xx-777-xxxx--|
D|-777-xx-777-xx-999-xx-777-xx-777-xx-777-xx-999-xx-777-xxxx--|
A|-777-xx-555-xx-777-xx-555-xx-777-xx-555-xx-777-xx-555-xxxx--|
E|-555----------------------xx-555----------------------------|

Don't call, don't ask about me,
Until the day hell freezes over.
e|------------------------------------------------------------|
B|------------------------------------------------------------|
G|-----xx-777-xx-999-xx-777-xx-----xx-777-xx-9-9---xx-7777----|
D|-777-xx-777-xx-999-xx-777-xx-777-xx-777-xx-9-9---xx-7777----|
A|-777-xx-555-xx-777-xx-555-xx-777-xx-555-xx-7-7---xx-5555----|
E|-555-------------------------555----------------------------|


Bridge:
It's gone before you know it
You can let go of something you've never had.

It's ash until you burn it.
I hope I never see you again.
e|------------------------------------------------|
B|------------------------------------------------|
G|-------------xx-x-66-xx-x-66-77777777-99999999--|
D|--99-xx-x-99-xx-x-66-xx-x-66-77777777-99999999--|  2x
A|--99-xx-x-99-xx-x-44-xx-x-44-55555555-77777777--|
E|--77-xx-x-77------------------------------------|


Pre-Chorus 3:
And what if I don't,
Would you even care?
Would you even care?
e|-----------|------------------------------------|
B|-----------|------------------------------------|
G|-----------|------------------------------------|
D|-----------|-------------------9-x9~------------|
A|-1212-11-9-|-12121212-11111111-9-x9~(let ring)--|
E|-1010-9--7-|-10101010-9-9-9-9--7-x7~------------|


End Chorus:
Forget everything that we have done.
Erase me from your memory.
e|------------------------------------------------------------|
B|------------------------------------------------------------|
G|-----xx-777-xx-999-xx-777--------xx-777-xx-999-xx-777-xxxx--|
D|-777-xx-777-xx-999-xx-777-xx-777-xx-777-xx-999-xx-777-xxxx--|
A|-777-xx-555-xx-777-xx-555-xx-777-xx-555-xx-777-xx-555-xxxx--|
E|-555----------------------xx-555----------------------------|

Don't call, don't ask about me
Until the day hell freezes over.
e|------------------------------------------------------------|
B|------------------------------------------------------------|
G|-----xx-777-xx-999-xx-777-xx-----xx-777-xx-9-9---xx-7777----|
D|-777-xx-777-xx-999-xx-777-xx-777-xx-777-xx-9-9---xx-7777----|
A|-777-xx-555-xx-777-xx-555-xx-777-xx-555-xx-7-7---xx-5555----|
E|-555-------------------------555----------------------------|

When hell freezes over.
e|-------------------------------------------------------------|
B|-------------------------------------------------------------|
G|--------777-xx-999-xx-777--------xx-777-xx-9-9---7-7-xxxx----|
D|-777-xx-777-xx-999-xx-777-xx-777-xx-777-xx-9-9---7-7-xxxx-7--|
A|-777-xx-555-xx-777-xx-555-xx-777-xx-555-xx-7-7---5-5-xxxx-7--|
E|-555-xx-------------------xx-555--------------------------5--|


Order:
--------------
Intro        |
Verse 1 (4x) |
Pre-Chorus 1 |
Chorus 1     |
Verse 2 (4x) |
Pre-Chorus 2 |
Chorus 2     |
Bridge (2x)  |
Pre-Chorus 3 |
End Chorus   |
--------------

Note: In the pre-chorus' the A|-1212-11-| part are 10's, 12's, 9's, and 11's
                             E|-1010-9--|
in case you get confused.

Any questions or comments, just email me or send me an IM through AIM.  My AIM and email
at the top of the page.
Enjoy! NFG rocks!!!
===============================================================================
Tap to rate this tab
 
# A B C D E F G H I J K L M N O P Q R S T U V W X Y Z