Song name
# A B C D E F G H I J K L M N O P Q R S T U V W X Y Z

New Found Glory - Belated tab

Hi its andrew jones (snbritishfreak@hotmail.com) and i noticed that there were no tabs
for "belated". so i decided i would give it a try. i also have this in my "Sticks and
Sontes" album tab. ENJOY! and if you like other songs on this album be sure to check out
my stick and stones album tab

Intro                                                         DISTORTION
E-----------------------------------------------------------------------|
B-----------------------------------------------------------------------|
G--------1---------1----------1---------1-------------------------------|x3
D------2---------2----------2---------2---------------------------------|
A-----------------------------------------------------------------------|
E---0---------2----------4----------2-----------------------------------|

Verse
---------------------------------------------------------------------------|
---------------------------------------------------------------------------|
---------------------------------------------------------------------------|
---2--2-2--2-2-2-2--4--4-4--4-4-4-4---6--6-6--6-6-6-6---4--4-4--4-4-4-4----|
---2--2-2--2-2-2-2--4--4-4--4-4-4-4---6--6-6--6-6-6-6---4--4-4--4-4-4-4----|
---0--0-0--0-0-0-0--2--2-2--2-2-2-2---4--4-4--4-4-4-4---2--2-2--2-2-2-2----|
   X  X X  X X X X  X  X X  X X X X   X  X X  X X X X   X  X X  X X X X

---------------------------------------------------------------------------|
---------------------------------------------------------------------------|
---------------------------------------------------------------------------|
---2--2-2--2-2-2-2--4--4-4--4-4-4-4---6--6-6--6-6-6-6---4--4-4--4-4-4-4----|
---2--2-2--2-2-2-2--4--4-4--4-4-4-4---6--6-6--6-6-6-6---4--4-4--4-4-4-4----|
---0--0-0--0-0-0-0--2--2-2--2-2-2-2---4--4-4--4-4-4-4---2--2-2--2-2-2-2----|
   X  X X  X X X X  X  X X  X X X X   X  X X  X X X X   X  X X  X X X X

---------------------------------------------------------------------------|
---------------------------------------------------------------------------|
---------------------------------------------------------------------------|
---2--2-2--2-2-2-2--4--4-4--4-4-4-4---6--6-6--6-6-6-6---4--4-4--4-4-4-4----|
---2--2-2--2-2-2-2--4--4-4--4-4-4-4---6--6-6--6-6-6-6---4--4-4--4-4-4-4----|
---0--0-0--0-0-0-0--2--2-2--2-2-2-2---4--4-4--4-4-4-4---2--2-2--2-2-2-2----|
      X X  X X X X     X X  X X X X      X X  X X X X      X X  X X X X 
---------------------------------------------------------------------------|
---------------------------------------------------------------------------|
---------------------------------------------------------------------------|
---2--2-2--2-2-2-2--4--4-4--4-4-4-4---6--6-6--6-6-6-6---4>-----------------|
---2--2-2--2-2-2-2--4--4-4--4-4-4-4---6--6-6--6-6-6-6---4>-----------------|
---0--0-0--0-0-0-0--2--2-2--2-2-2-2---4--4-4--4-4-4-4---2>-----------------|
      X X  X X X X     X X  X X X X      X X  X X X X   X 

Chorus part 1
----------------------------------------------------------|
----------------------------------------------------------|
-----------------2-2-2-2-2-2-----------------2-2-2-2-2-2--|
---2-2-2-2-2-2---2-2-2-2-2-2---4-4-4-4-4-4---2-2-2-2-2-2--|x3
---2-2-2-2-2-2---0-0-0-0-0-0---4-4-4-4-4-4---0-0-0-0-0-0--|
---0-0-0-0-0-0-----------------2-2-2-2-2-2----------------|

Chorus part 2
----------------------------------------------------------|
----------------------------------------------------------|
----------------------------------------------------------|
---2-2-2-2-2-2---7-7-7-7-7-7---4-4-4-4-4-4---7-7-7-7-7-7--|
---2-2-2-2-2-2---7-7-7-7-7-7---4-4-4-4-4-4---7-7-7-7-7-7--|
---0-0-0-0-0-0---5-5-5-5-5-5---2-2-2-2-2-2---5-5-5-5-5-5--|
                                               X X X X X

Intro x2
Verse

Chorus part 1
----------------------------------------------------------|
----------------------------------------------------------|
----------------------------------------------------------|
---2-2-2-2-2-2---7-7-7-7-7-7---4-4-4-4-4-4---7-7-7-7-7-7--|x3
---2-2-2-2-2-2---7-7-7-7-7-7---4-4-4-4-4-4---7-7-7-7-7-7--|
---0-0-0-0-0-0---5-5-5-5-5-5---2-2-2-2-2-2---5-5-5-5-5-5--|

Chorus part 2
----------------------------------------------------------|
----------------------------------------------------------|
----------------------------------------------------------|
---2-2-2-2-2-2---7-7-7-7-7-7---4-4-4-4-4-4---7-7-7-7-7-7--|
---2-2-2-2-2-2---7-7-7-7-7-7---4-4-4-4-4-4---7-7-7-7-7-7--|
---0-0-0-0-0-0---5-5-5-5-5-5---2-2-2-2-2-2---5-5-5-5-5-5--|
                                               X X X X X

                                                               
Breakdown
-------------------------------------------------------------------------|
-------------------------------------------------------------------------|
-------------------------------------------------------------------------|x2
-4-4-4-4-4-4-4-4-4-4---7-7-7-7-7-7-7-7-7-7---2-2-2-2-2-2-2--9-9-9-9-9-9-9|
-4-4-4-4-4-4-4-4-4-4---7-7-7-7-7-7-7-7-7-7---2-2-2-2-2-2-2--9-9-9-9-9-9-9|
-2-2-2-2-2-2-2-2-2-2---5-5-5-5-5-5-5-5-5-5---0-0-0-0-0-0-0--7-7-7-7-7-7-7
                                                              X X X X X X
Intro    x2
Chorus 1 x3
Chorus 2 
Chorus 1 x3
Chorus 2

Outro
----------------------|
----------------------|
----------------------|
---7-7-7--7--7-7--7--2|
---7-7-7--7--7-7--7--2|
---5-5-5--5--5-5--5--0|
   X X X  X  X X  X  X      


thats all really, check out the reast of this album on my sticks and stones tab
Tap to rate this tab
 
# A B C D E F G H I J K L M N O P Q R S T U V W X Y Z