Song name
# A B C D E F G H I J K L M N O P Q R S T U V W X Y Z

New Found Glory - This Isnt You tab

This Isn't You by New Found Glory
Album: Not Without a Fight

This is my 1st tab, enjoy

Tuning: 1 step down (DGCFAD)

D -------------------------------------------------|
A -------------------------------------------------|
F -------------------------------------------------|
C ---(4-4-4)--4-4---6--6-6---8--8-8---6--6-6---4---| x4 (Intro + Chorus)
G ---(4-4-4)--4-4---6--6-6---8--8-8---6--4-4---4---|
D ---(2-2-2)--2-2---4--4-4---6--6-6---4--4-4---2---|

D -----------------------------------------------|
A -----------------------------------------------|
F ---------12---------0--------------------------|
C ---9/10--------7/8-----------------------------| (Lead Guitar tune)
G -----------------------------------------------|
D -----------------------------------------------|

Main riff (Rhythm Guitar):

D ----------------------------------------------------------------|
A ----------------------------------------------------------------|
F ------------8/6--6-----------8/6-6-6-----------8/6-6------------|
C ----6/8-8---8/6--6---6/8-8---8/6-6-6---6/8-8---8/6-6---4-4------|
G ----6/8-8---6/4--4---6/8-8---6/4-4-4---6/8-8---6/4-4---4-4------|
D ----4/6-6------------4/6-6-------------4/6-6-----------2-2------|

D ---------------------------------------------------------|
A ---------------------------------------------------------|
F ------------8/6--6-----------8/6-6-6-----------8/6-6-----|
C ----6/8-8---8/6--6---6/8-8---8/6-6-6---6/8-8---8/6-6-----| (repeat)
G ----6/8-8---6/4--4---6/8-8---6/4-4-4---6/8-8---6/4-4-----|
D ----4/6-6------------4/6-6-------------4/6-6-------------|

(Back to Chorus and that's pretty much it. Hope it works out for you)
Tap to rate this tab
# A B C D E F G H I J K L M N O P Q R S T U V W X Y Z