Song name
# A B C D E F G H I J K L M N O P Q R S T U V W X Y Z

New Found Glory - Nothing For Christmas chords

Highlighted       Show chord diagrams
This is a simple version of chords for this song.
It's rellay nice to play it, i hope you'll enjoy too! :)

Riff: (There is no meaning for the distance between the notes)
-----------------------------------------------------------------
e | -----------3-------------3---------------------------------------|
b | - 3 - 3 - - -3- 3 - 3 - - -3---0--0---1--0---0---0---1--0--------|
g | 0 - 0 - 0-----0 - 0 - 0----------------------0---0---0-----------|
d | -------------------------------2--2--2---------------------------|
a | -----------------------------------------------------------------|
E | -----------------------------------------------------------------|
-----------------------------------------------------------------

Chords for chorus:
G - Cadd9 - AM - C

Strumming:
Down .. Up Down
Tap to rate this tab
# A B C D E F G H I J K L M N O P Q R S T U V W X Y Z