Song name
# A B C D E F G H I J K L M N O P Q R S T U V W X Y Z

New Found Glory - Goonies R Good Enough tab

	p = pull off to
	h = hammer onto
       ( )= palm mute

	Intro:
1|---------------------------------------------------------------------------|
2|---------------------------------------------------------------------------|g1  
3|---6-----------------------------------------------------------------------|
4|---6--6--9-----------------------------------------------------------------|
5|---4--6--9-----------------------------------------------------------------|
6|------4--7-----------------------------------------------------------------|
	                                                                            
  x4     
1|---------------------------------------------------------------------------|
2|---------------------------------------------------------------------------|g2  
3|---------------------------------------------------------------------------|
4|-----6p4-4h6---4h6-6-6p4---4h6-4h6-----------------------------------------|
5|---4-----------------------------------------------------------------------|
6|---------------------------------------------------------------------------|

	Verse:
1|---------------------------------------------------------------------------|
2|---------------------------------------------------------------------------|g1  
3|---------------------------------------------------------------------------|  x2 and 
4|---2--(4)--4--6--4---------------------------------------------------------|g2  
5|---2--(4)--4--6--4---------------------------------------------------------|     
6|---O--(2)--2--4--2---------------------------------------------------------|

	Pre-Chorus:
1|---------------------------------------------------------------------------|     
2|---------------------------------------------------------------------------|g1  
3|---------------------------------------------------------------------------|     
4|---7--9--2--4--6-----7--9--2--4--6-----------------------------------------|     
5|---7--9--2--4--6-----7--9--2--4--6-----------------------------------------|
6|---5--7--O--2--4-----5--7--O--2--4-----------------------------------------|
         x1
     
1|---------------------------------------------------------------------------|     
2|---------------------------------------------------------------------------|g2  
3|---------------------------------------------------------------------------|     
4|---------------------9-9-7-7-6-6-------------------------------------------|     
5|---------------------------------9-9-7-7-6-6-7-7---------------------------|     
6|---------------------------------------------------------------------------|

	Chorus:
1|---------------------------------------------------------------------------|
2|---------------------------------------------------------------------------|g1  
3|---------------------------------------------------------------------------|  x2 and 
4|---2--6--7--9----(6)--(7)--9-----------------------------------------------|g2
5|---2--6--7--9----(6)--(7)--9-----------------------------------------------|
6|---O--4--5--7----(4)--(5)--7-----------------------------------------------|

The whole song repeats itself pretty much except at the very end, so 
here's the outro.

	Outro:
1|---------------------------------------------------------------------------|
2|---------------------------------------------------------------------------|g1  
3|---------------------------------------------------------------------------|  x1and 
4|---6--4--2-----------------------------------------------------------------|g2  
5|---6--4--2-----------------------------------------------------------------|     
6|---4--2--O-----------------------------------------------------------------|

	The outro is the last 3 chords of this song.
Tap to rate this tab
 
# A B C D E F G H I J K L M N O P Q R S T U V W X Y Z