Song name
# A B C D E F G H I J K L M N O P Q R S T U V W X Y Z

New Found Glory - Ending In Tragedy tab

Band: New Found Glory 
Song: Ending In Tragedy 
Album: Catalyst 

Intro 
Guitar 1                                                         x4       
E----------------------------------------------------------------|
B--4---4---4---4-------------------------------------------------|
G---4---4---4---4------------------------------------------------|
D-6---4---2---4--------------------------------------------------|
A----------------------------------------------------------------|
E----------------------------------------------------------------|
Let every note ring

Guitar 2                                                         x2  
E----------------------------------------------------------------|
B-----------------7----------------------------------------------|
G-8-6-------8-6-----8-6------------------------------------------|
D-----9-889-----9------------------------------------------------|
A----------------------------------------------------------------|
E----------------------------------------------------------------|

Verse
Both Guitars                                                     x2
E----------------------------------------------------------------|
B---4-4---4-4---4-4---4-4----------------------------------------|
G---4-4---4-4---4-4---4-4----------------------------------------|
D-6-----4-----2-----4--------------------------------------------|
A----------------------------------------------------------------|
E----------------------------------------------------------------|

Break
Guitar 1                                                         x4       
E----------------------------------------------------------------|
B--4---4---4---4-------------------------------------------------|
G---4---4---4---4------------------------------------------------|
D-6---4---2---4--------------------------------------------------|
A----------------------------------------------------------------|
E----------------------------------------------------------------|

Guitar 2                                                         x2  
E----------------------------------------------------------------|
B-----------------7----------------------------------------------|
G-8-6-------8-6-----8-6------------------------------------------|
D-----9-889-----9------------------------------------------------|
A----------------------------------------------------------------|
E----------------------------------------------------------------|

Verse
Both Guitars                                                     x4
E----------------------------------------------------------------|
B---4-4---4-4---4-4--4-4-----------------------------------------|
G---4-4---4-4---4-4--4-4-----------------------------------------|
D-6-----4-----2-----4--------------------------------------------|
A----------------------------------------------------------------|
E----------------------------------------------------------------|

Chorus
Both Guitars                                                     x2 
E----------------------------------------------------------------|
B----------------------------------------------------------------|
G-4-44-444-------------------4-4444------------------------------|
D-4-44-444-4-44-444-2-22-222-4-4444-4-4444-----------------------|
A-2-22-222-4-44-444-2-22-222-2-2222-4-4444-----------------------|
E----------2-22-222-0-00-000--------2-2222-----------------------|
Hear very carefully, it's actually played like that

Pre-verse
Guitar 1                                                         x2       
E----------------------------------------------------------------|
B--4---4---4---4-------------------------------------------------|
G---4---4---4---4------------------------------------------------|
D-6---4---2---4--------------------------------------------------|
A----------------------------------------------------------------|
E----------------------------------------------------------------|

Guitar 2                                                         x1
E----------------------------------------------------------------|
B-----------------7----------------------------------------------|
G-8-6-------8-6-----8-6------------------------------------------|
D-----9-889-----9------------------------------------------------|
A----------------------------------------------------------------|
E----------------------------------------------------------------|

Verse
Both Guitars                                                     x4
E----------------------------------------------------------------|
B---4-4---4-4---4-4--4-4-----------------------------------------|
G---4-4---4-4---4-4--4-4-----------------------------------------|
D-6-----4-----2-----4--------------------------------------------|
A----------------------------------------------------------------|
E----------------------------------------------------------------|

Break
Guitar 1                                                         x2       
E----------------------------------------------------------------|
B--4---4---4---4-------------------------------------------------|
G---4---4---4---4------------------------------------------------|
D-6---4---2---4--------------------------------------------------|
A----------------------------------------------------------------|
E----------------------------------------------------------------|

Guitar 2                                                         x1
E----------------------------------------------------------------|
B-----------------7----------------------------------------------|
G-8-6-------8-6-----8-6------------------------------------------|
D-----9-889-----9------------------------------------------------|
A----------------------------------------------------------------|
E----------------------------------------------------------------|

Verse
Guitar 1                                                         x2     
E----------------------------------------------------------------|
B--4---4---4---4-------------------------------------------------|
G---4---4---4---4------------------------------------------------|
D-6---4---2---4--------------------------------------------------|
A----------------------------------------------------------------|
E----------------------------------------------------------------|

Chorus
Both Guitars                                                     x2
E----------------------------------------------------------------|
B----------------------------------------------------------------|
G--------4-44-444-------------------4-4444-----------------------|
D-x-x-xx-4-44-444-4-44-444-2-22-222-4-4444-4-4444----------------|
A-x-x-xx-2-22-222-4-44-444-2-22-222-2-2222-4-4444----------------|
E-x-x-xx----------2-22-222-0-00-000--------2-2222----------------|

Bridge 
Both Guitars                                                     x2            
E----------------------------------------------------------------|
B----------------------------------------------------------------|
G------6666------------------------------------------------------|
D-6666-6666-2-2222-2-2222-2-2222-2-2222--------------------------|
A-6666-4444-2-2222-2-2222-2-2222-2-2222--------------------------|
E-4444------0-0000-0-0000-0-0000-0-0000--------------------------|

                                                                 x2
E----------------------------------------------------------------|
B----------------------------------------------------------------|
G--------666666-9-999-9-999-9-999-9-999--------------------------|
D-666666-666666-9-999-9-999-9-999-9-999--------------------------|
A-666666-444444-7-777-7-777-7-777-7-777--------------------------|
E-444444---------------------------------------------------------|

Chorus
Both Guitars
E----------------------------------------------------------------|
B----------------------------------------------------------------|
G-4-44-444-------------------4-4444------------------------------|
D-4-44-444-4-44-444-2-22-222-4-4444-4-4444-----------------------|
A-2-22-222-4-44-444-2-22-222-2-2222-4-4444-----------------------|
E----------2-22-222-0-00-000--------2-2222-----------------------|

E----------------------------------------------------------------|
B----------------------------------------------------------------|
G-4-44-444------------------4-444--------------------------------|
D-4-44-444-4-44-444-2-22222-4-444-4-444--------------------------|
A-2-22-222-4-44-444-2-22222-2-222-4-444--------------------------|
E----------2-22-222-0-00000-------2-222--------------------------|
                       p.m

Guitar 1
E----------------------------------------------------------------|
B----------------------------------------------------------------|
G-4-44-444-------------------4-4444------------------------------|
D-4-44-444-4-44-444-2-22-222-4-4444-4-4444-----------------------|
A-2-22-222-4-44-444-2-22-222-2-2222-4-4444-----------------------|
E----------2-22-222-0-00-000--------2-2222-----------------------|

E----------------------------------------------------------------|
B----------------------------------------------------------------|
G-4-44-444------------------4-444--------------------------------|
D-4-44-444-4-44-444-2-22222-4-444-4-444--------------------------|
A-2-22-222-4-44-444-2-22222-2-222-4-444--------------------------|
E----------2-22-222-0-00000-------2-222--------------------------|

Guitar 2                                                         x2
E----------------------------------------------------------------|
B----7x-5x-4x----7x-5x-4x----7x-5x-4x-4-4444-2-2222--------------|
G-44----------33-------------------------------------------------|
D-------------------------66-------------------------------------|
A----------------------------------------------------------------|
E----------------------------------------------------------------|

Outro
Guitar 1                                                         x2       
E----------------------------------------------------------------|
B--4---4---4---4-------------------------------------------------|
G---4---4---4---4------------------------------------------------|
D-6---4---2---4--------------------------------------------------|
A----------------------------------------------------------------|
E----------------------------------------------------------------|

Guitar 2                                                         x1  
E----------------------------------------------------------------|
B-----------------7----------------------------------------------|
G-8-6-------8-6-----8-6------------------------------------------|
D-----9-889-----9------------------------------------------------|
A----------------------------------------------------------------|
E----------------------------------------------------------------|

Guitar 1                                                         x2         
E----------------------------------------------------------------|
B---4-4---4-4---4-4---4-4----------------------------------------|
G---4-4---4-4---4-4---4-4----------------------------------------|
D-6-----4-----2-----4--------------------------------------------|
A----------------------------------------------------------------|
E----------------------------------------------------------------|

End On:
E-2--------------------------------------------------------------|
B-2--------------------------------------------------------------|
G-4--------------------------------------------------------------|
D-4--------------------------------------------------------------|
A-2--------------------------------------------------------------|
E----------------------------------------------------------------|
Tap to rate this tab
# A B C D E F G H I J K L M N O P Q R S T U V W X Y Z