Song name
# A B C D E F G H I J K L M N O P Q R S T U V W X Y Z

New Found Glory - Ex-miss tab

New Found Glory
Tabed by shadowspec

Intro:

E|----------|
B|----------|
G|----------|
D|--5---2---|
A|----5---3-|
E|----------|

Verses:

E|----------------------|
B|----------------------|
G|----------------------|
D|----5----5------------|
A|--5-3--5-3------------|
E|--3----3--------------|

Just keep doing that

Pre-Chorus:

E|----------------|
B|----------------|
G|----------------|
D|----5-----------|
A|--7-3-5-3-2-3-5-|
E|--5---3---------|

Solo:

E|---------------------------------------------------------|
B|---------------------------------------------------------|
G|--------4--------------4--------------4--------7-7-5---4-|
D|----------7-5------------7-5------------7-5----------7---|
A|--5-5-5-------5--5-5-5-------7--7-7-7-------7------------|
E|---------------------------------------------------------|
Tap to rate this tab
 
# A B C D E F G H I J K L M N O P Q R S T U V W X Y Z