Song name
# A B C D E F G H I J K L M N O P Q R S T U V W X Y Z

New Found Glory - First Kiss tab

                         NEW FOUND GLORY
                           FIRST KISS


Guitar 1: Standard tuning EADGBe
Guitar 2: Standard tuning EADGBe

Guitar 1
-----------------------------------|
-----------------------------------|
---66-666--------66-666------------|
---66-666-44-444-66-666-44-444-----|
---44-444-44-444-44-444-44-444-----|
----------22-222--------22-222-----|

guitar 2
------------------------------------|
------------------------------------|
------------------------------------|
-----6-4-3----------6-4-3-----------|
-----------6-4------------6-4-4-6-4-|
------------------------------------|

guitar 1
-----------------------------------|
-----------------------------------|
---66-666--------66-666------------|
---66-666-44-444-66-666-44-444-----|
---44-444-44-444-44-444-44-444-----|
----------22-222--------22-222-----|

chorus repeat a few times
------------------------------|
------------------------------|
--66x---66x---66x-------------|
--66x-4-66x-4-66x-4-88-66-----|
--44x-4-44x-4-44x-4-88-66-----|
------2-----2-----2-66-44-----|

Guitar 1
-----------------------------------|
-----------------------------------|
---66-666--------66-666------------|
---66-666-44-444-66-666-44-444-----|
---44-444-44-444-44-444-44-444-----|
----------22-222--------22-222-----|

guitar 2
-------------------------------|
-------------------------------|
-------------------------------|
-----6-4-3----------6-4-3------|
-----------6-4------------6-4--|
-------------------------------|

Guitar 1
-----------------------------------|
-----------------------------------|
---66-666--------66-666------------|
---66-666-44-444-66-666-44-444-----|
---44-444-44-444-44-444-44-444-----|
----------22-222--------22-222-----|


------------------------------|
------------------------------|
--66x---66x---66x-------------|
--66x-4-66x-4-66x-4-88-66-----|x2
--44x-4-44x-4-44x-4-88-66-----|
------2-----2-----2-66-44-----|

end on
------|
------|
-66---|
-66---|
-44---|
------|

thats it
peace
Tap to rate this tab
# A B C D E F G H I J K L M N O P Q R S T U V W X Y Z