Song name
# A B C D E F G H I J K L M N O P Q R S T U V W X Y Z

New Found Glory - Nothing Gold Can Stay tab

1. Hit Or Miss
2.3rd And Long
3.You've Got A Friend In Pennsylvania
4.2's & 3's
5. Tell-Tale Heart
6.Winter Of '95
7.Passing Time
8.Broken Sound
9.Never Sometimes
10.The Goodbye Song




Hit Or Miss:

Intro:
-------------------------------------------------------------------|
-------------------------------------------------------------------|
-9-9-x-9-----------------------------------------------------------|
-9-9-x-9--9-9-x-9-11-11-x-11-7-7-x-7-------------------------------|
-7-7-x-7--9-9-x-9-11-11-x-11-7-7-x-7-------------------------------|
----------7-7-x-7--9--9-x--9-5-5-x-5-------------------------------|
    E             B             C            A
Bridge:
-----------------------------------------------------------------|
-----------------------------------------------------------------|
-9-9-9-9---------------------------------------------------------|
-9-9-9-9-9-9-9-9-11-11-11-11-7-7-7-7-----------------------------|
-7-7-7-7-9-9-9-9-11-11-11-11-7-7-7-7-----------------------------|
---------7-7-7-7--9--9--9--9-5-5-5-5-----------------------------|
 ^ ^  ^ ^  ^  ^ ^ ^   ^   ^   ^    ^  ^  ^ ^  ^
    E          B               C             A

-------------------|
-------------------|
---9---------------|
---9-----9------7--|   Play this after you play the intro three times more. Let each chord
---7-----9------7--|                                           ring.
---------7------5--|
Melody:
---------------------------------------------------------------------|
---------------------------------------------------------------------|
------------------4-4-4----4-4-4----6-6-6---6-6-6---4-4--4---4--4-4--|
-2-2-2---2-2-2----4-4-4----4-4-4----6-6-6---6-6-6---4-4--4---4--4-4--|
-2-2-2---2-2-2----2-2-2----2-2-2----4-4-4---4-4-4---2-2--2---2--2-2--|
-0-0-0---0-0-0-------------------------------------------------------|
 ^  ^      ^ ^         ^  ^       ^  ^          ^ ^      ^  ^       ^  ^        ^   ^
        E                    B                 C#                   B
-------------------------------------------------------------------|
-------------------------------------------------------------------|
------------------4-4-4---4-4-4---6-6-6---6-6-6---9-9-9-9-9-9-9-9--|
-2-2-2---2-2-2----4-4-4---4-4-4---6-6-6---6-6-6---9-9-9-9-9-9-9-9--|
-2-2-2---2-2-2----2-2-2---2-2-2---4-4-4---4-4-4---7-7-7-7-7-7-7-7--|
-0-0-0---0-0-0-----------------------------------------------------|
 ^ ^       ^ ^          ^  ^      ^  ^      ^  ^       ^  ^
         E                   B                   C#                 E



Chorus:
----------------------------------------------------------------------|
----------------------------------------------------------------------|
--9-9-9---------------------------------------------------------------|
--9-9-9--9-9-9-11-11-11-11-11-11--11--11------------------------------|
--7-7-7--9-9-9-11-11-11-11-11-11--11--11------------------------------|
-----------7-7-7---9--9--9---9---9---9---9----9-----------------------|
  ^ ^      ^  ^       ^    ^  ^    ^   ^    ^   ^     ^
    E        B                     B
---------------------------------------------|
---------------------------------------------|
-9-9-9---------------------------------------|
-9-9-9-9-9-9--7-7-7-7-7-7-7-7----------------|
-7-7-7-9-9-9--7-7-7-7-7-7-7-7----------------|
----------7-7-7-5-5-5-5-5-5-5-5--------------|
 ^ ^     ^  ^    ^  ^ ^  ^ ^  ^  ^ ^
   E        B             A
3rd And Long:

Intro
e|------------------------------|
B|------------------------------|
G|---7-----6-----7--------------|
D|---7-----7-----7-----7--------|
A|---------------------7--------|
E|------------------------------|
play once

e|------------------------------------------------------------------------------|
B|------------------------------------------------------------------------------|
G|-----7-7------7-7-------6-6------7-7------7-7-------7-7--------6-6------6-6---|
D|-----7-7----------------7-7------7-7------7-7-------7-7--------7-7------7-7---|
A|-55--5-5--55--------44--4-4--44-----------6-6-------6-6--------7-7------7-7---|
E|--------------------------------------77--7-7---77--7-7----55--5-5--55--5-5---|
"...pieces that i left behind..."

e|------------------------------------------------------------------|
B|------------------------------------------------------------------|
G|-----7-7------7-7-------6-6------7-7------7-7-------7-7------6----|
D|-----7-7----------------7-7------7-7------7-7-------7-7------7----|
A|-55--5-5--55--------44--4-4--44-----------6-6-------6-6------7----|
E|--------------------------------------77--7-7---77--7-7------5----|
"I know I talk in..."

e|-----------------------------------------------------------|
B|-----------------------------------------------------------|
G|-----------------------------------------------------------|
D|----5-5--5---5--5--7-7--7-7----7-5-5--5--5----5--77777-----|
A|----5-5--5--5---5--7-7--7---7--7-5-5--5-5-----5--77777-----|
E|----3-3--3------3--5-5--5------5-3-3--3-------3--55555-----|
play twice
"you see yourself...."

B|------------------------------------------------------------------------------|
G|-----7-7------7-7-------6-6------7-7------7-7-------7-7--------6-6------6-6---|
D|-----7-7----------------7-7------7-7------7-7-------7-7--------7-7------7-7---|
A|-55--5-5--55--------44--4-4--44-----------6-6-------6-6--------7-7------7-7---|
E|--------------------------------------77--7-7---77--7-7----55--5-5--55--5-5---|
"I'll never take it back..."

e|------------------------------------------------------------------|
B|------------------------------------------------------------------|
G|-----7-7------7-7-------6-6------7-7------7-7-------7-7------6----|
D|-----7-7----------------7-7------7-7------7-7-------7-7------7----|
A|-55--5-5--55--------44--4-4--44-----------6-6-------6-6------7----|
E|--------------------------------------77--7-7---77--7-7------5----|
"i'll never want it back...."

e|-----------------------------------------------------------|
B|-----------------------------------------------------------|
G|-----------------------------------------------------------|
D|----5-5--5---5--5--7-7--7-7----7-5-5--5--5----5--77777-----|
A|----5-5--5--5---5--7-7--7---7--7-5-5--5-5-----5--77777-----|
E|----3-3--3------3--5-5--5------5-3-3--3-------3--55555-----|
play twice
"you see yourself.."

e|-----------------------|
B|-----------------------|
G|----7------------------|
D|----7----7-----5-------|
A|----5----7-----5-------|
E|---------5-----3-------|
play 4 times
first three times have pauses
"Time grabs me...still far from her"

2nd guitar
e|------------------------|
B|------------------------|
G|------------------------|
D|---4-5-7---------5555---|
A|---------4-5-7---5555---|
E|-----------------3333---|

play slow on 4th time with above riff

e|------------------------------------------------|
B|------------------------------------------------|
G|------7------------------7----------------------|
D|------7---7---55--5------7---7----55-----9--7---|
A|------5---7---55--5------5---7----55-----9--7---|
E|----------5---33--3----------5----33-----7--5---|
play 4 times

2nd guitar plays this (behind above riff)
e|--------------------|
B|--------------------|
G|--------------------|
D|---4-5/7------------|
A|---------4-5/7------|
E|--------------------|
play fast

e|---------------------------------------|
B|---------------------------------------|
G|---------------------------------------|
D|----5-5--5---5--5--7-7--7-7------------|
A|----5-5--5--5---5--7-7--7---7----------|
E|----3-3--3------3--5-5--5--------------|
play 8 times
"please dont change..."

e|-----------------------|
B|-----------------------|
G|----7------------------|
D|----7----7-----5-------|
A|----5----7-----5-------|
E|---------5-----3-------|
play 4 times
"time grabs me...."

e|------------------------------------------------|
B|------------------------------------------------|
G|------7------------------7----------------------|
D|------7---7---55--5------7---7----55-----9--7---|
A|------5---7---55--5------5---7----55-----9--7---|
E|----------5---33--3----------5----33-----7--5---|
play 4 times to end
"my name is a.....kept away from everyone else"


You've Got A Friend in Pennsylvania:
Riff 1: Rhythm		 First time    Second time
e-----------------------]-------------]--------------------------|
b-----------------------]-------------]--------------------------|
g-----------------------]-10----------]--------------------------|
d---10-----10-----7-----]-10//////----]--3-----------------------|
a---10///--10///--7////-]-8-----------]--3///////----------------|
E---8------7------5-----]-------------]--1-----------------------|

Riff 1: Lead
e------------------------------------------------------------------------------|
b------------------------------------------------------------------5-----------|
g--5---9----4---11-------3pf2pf0--3pf2pf0--3pf2pf0----5---7-5---5-7---7-5-4-5--|
d--*---*----*---*--------------------------------------5-----5-----------------|
a--3---7----2---9--------------------------------------------------------------|
E------------------------------------------------------------------------------|

Verse:
e----------------------------------------------------------------------------[  ]
b----------------------------------------------------------------------------[  ]
g----5----5----5----5-------------------------5----5----5----5---------------[  ]
d--//5--//5--//5--//5-----3----3----3----3--//5--//5--//5--//5--3------------[X2]
a----3----3----3----3---//3--//3--//3--//3----3----3----3----3--3(let ring)--[  ]
E-------------------------1----1----1----1----------------------1------------[  ]

 Verse pt 2:   (I Know, it must be something I said.....)
e--------------------[--]--------------------------------------|
b--------------------[--]--------------------------------------|
g------------10------[--]--------------------------------------|
d----7--5----10---5--[X3]----7--5--3---------7--5--------------|
a----7--5----8----5--[--]----7--5--3////////-7--5///////-------|
E----5--3---------3--[--]----5--3--1---------5--3--------------|

Play:
Riff 1
Verse
Verse pt 2
Verse
Verse pt 2
Riff 1 (rhythm only)
Verse
Verse pt 2
Riff 1 (rhythm)
Riff 1 (rhythm, same chords, but different rhythm,you should know what I mean)
Riff 1 (Rhythm X2)
End on--10
      --10
     a--8

-Stig-

2's % 3's:
Intro
e|------------------------------------------|
B|------------------------------------------|
G|---------------------------------10-9-10--|
D|-xxxx-33-33/5-55-55/7-77-77/8-8--x -x-x---|
A|-xxxx-33-33/5-55-55/7-77-77/8-8--8 -7-8---|
E|-xxxx-11-11/3-33-33/5-55-55/6-6-----------|

Pre-Chorus
e|---------------------------------------------|
B|---------------------------------------------|
G|-3~-xxxx-3~-xxxx-5-3-5-3-5-3-5-3-5-3-5-3-5^~-|
D|-3~-xxxx-3~-xxxx-----------------------------|
A|-1~-xxxx-1~-xxxx-----------------------------|
E|---------------------------------------------|

Verse
e|---------------------|
B|---------------------|
G|-----------5555-3333-|
D|-3333-3333-5555-3333-|
A|-3333-3333-3333-1111-|
E|-1111-0000-----------|

Chorus
e|---------------------------------------------|
B|---------------------------------------------|
G|------3333-7777-10101010-5555-7777-3333-5555-|
D|-3333-3333-7777-10101010-5555-7777-3333-5555-|
A|-3333-1111-5555-8 8 8 8 -3333-5555-1111-3333-|
E|-1111----------------------------------------|

Lead Part Chad Plays after Chorus
e|-------------------------------------------------------|
B|-------------------------------------------------------|
G|-3p2---3p2---3p2---3p2---5-5-5-5--7-7-7-7--10-10-10-10-|
D|-----3-----3-----3-----3-------------------------------|
A|-------------------------------------------------------|
E|-------------------------------------------------------|

cont'd
e|-----------------------------------------------------------------------|
B|-13-----------------13----------------13-13-13-13/15-15-15-15/18^^^^^^-|
G|----10-10h12p10-10-----10-10h12p10-10----------------------------------|
D|-----------------------------------------------------------------------|
A|-----------------------------------------------------------------------|
E|-----------------------------------------------------------------------|

End Guitar 1
e|---------------------------------------------|
B|---------------------------------------------|
G|------3333-7777-10101010-5555-7777-3333-5555-|
D|-3333-3333-7777-10101010-5555-7777-3333-5555-|
A|-3333-1111-5555-8 8 8 8 -3333-5555-1111-3333-|
E|-1111----------------------------------------|

cont'd
e|----------------------------------------|
B|----------------------------------------|
G|------3333-7777-10101010-5~-7~-3~-5~----|
D|-3333-3333-7777-10101010-5~-7~-3~-5~-3~-|
A|-3333-1111-5555-8 8 8 8 -3~-5~-1~-3~-3~-|
E|-1111--------------------------------1~-|

Lead Guitar End
e|------------------------------------------------------------|
B|------------------------------------------------------------|
G|-----5-3-2-----5-3-2-----7-5-3-3h5p3-2------5-3-2-----5-3-2-|
D|-3-3-------3-3-------3-3----------------3-3-------3-3-------|
A|------------------------------------------------------------|
E|------------------------------------------------------------|

cont'd
e|--------------------------|
B|--------------------------|
G|----5/7-7-7--3-3h5p3-2----|
D|-3-3-------------------3~-|
A|--------------------------|
E|--------------------------|

Tell-Tale Heart:
Intro/verse- I give you the chords and you can figure out the strumming and
rythms yourself
e|--------------------------------------------------------------------------|
B|--------------------------------------------------------------------------|
G|--------------------------------------------------------------------------|
D|-2------7-6-4-2-----------------------------------------------------------|
A|-0-6-4--5-4-2-0-----------------------------------------------------------|
E|---4-2--------------------------------------------------------------------|

thing between verse and chorus
e|--------------------------------------------------------------------------|
B|--3-2-0-3-2-0-3-2-0---0---5555-7-5-3333-2-0-------------------------------|
G|--------------------2---2-------------------------------------------------|
D|--------------------------------------------------------------------------|
A|--------------------------------------------------------------------------|
D|--------------------------------------------------------------------------|

End On
e|--------------------------------------------------------------------------|
B|--------------------------------------------------------------------------|
G|--------------------------------------------------------------------------|
D|-2------------------------------------------------------------------------|
A|-0------------------------------------------------------------------------|
D|--------------------------------------------------------------------------|

-Stig-

Winter Of '95:
e|-----------------------------------------------------|
B|-----------------------------------------------------|
G|-------77----11-11---99----------77--66--44----------|
D|---7---77----11-11---99-----77---77--66--44----------|
A|---7---55----9--9----77-----77---55--44--22----------|
E|---5------------------------55-----------------------|


e|--------------------------------------------------------|
B|--------------------------------------------------------|
G|-------77----11-11---99----------77--66--44---------7---|
D|---7---77----11-11---99-----77---77--66--44-----7---7-7-|
A|---7---55----9--9----77-----77---55--44--22-----7---5-7-|
E|---5------------------------55------------------5-----5-|


VERSE:

e|-----------------------------------------------------|
B|-----------------------------------------------------|
G|-------77----11-11---99----------77--66--44----------|
D|---7---77----11-11---99-----77---77--66--44----------|
A|---7---55----9--9----77-----77---55--44--22----------|
E|---5------------------------55-----------------------|


e|------------------------------------------------|
B|------------------------------------------------|
G|-------77----11-11---99----------77--66--44-----|
D|---7---77----11-11---99-----77---77--66--44-----|
A|---7---55----9--9----77-----77---55--44--22-----|
E|---5------------------------55------------------|


PRE-CHORUS:

e|-----------------------------------------------------------------|
B|-----------------------------------------------------------------|
G|----------7777-----------777----11-9-7-----------77--99---77  99-|
D|---7777---7777----7777---777----11-9-7-----------77--99---77--99-|
A|---7777---5555----7777---555----9--7-5-----------55--77---55--77-|
E|---5555-----------5555-------------------------------------------|
     ****   ****    ****   ***                                           *=Palm Muted

e|-----------------------------------------------------------------|
B|-----------------------------------------------------------------|
G|----------7777-----------777----11-9-7-----------77--99---77  99-|
D|---7777---7777----7777---777----11-9-7-----------77--99---77--99-|
A|---7777---5555----7777---555----9--7-5-----------55--77---55--77-|
E|---5555-----------5555-------------------------------------------|
     ****   ****    ****   ***


CHORUS:

I wrote the chorus in two parts.
This is the first ("Sometimes I... that I don't have")


e|--------------------|
B|--------------------|
G|--1111--77--99------|
D|--1111--77--99--77--|  x3
A|--9-9---55--77--77--|
E|----------------55--|


e|-----------------------|
B|-----------------------|
G|-4444---6/7777----9999-|
D|-4444---6/7777----9999-|  x1
A|-2222---4/5555----7777-|
E|-----------------------|


Now the second part ("The joke's on you...")


e|--------------------------------------|
B|--------------------------------------|
G|-----99-------1111----77-------99--77-|
D|-77--99--77---1111----77--77---99--77-|
A|-77--77--77---9-9-----55--77---77--55-|
E|-55------55---------------55----------|

e|----------------------------------------------|
B|----------------------------------------------|
G|-----99-------1111----77-------99--77-----7---|
D|-77--99--77---1111----77--77---99--77---7-7-7-|
A|-77--77--77---9-9-----55--77---77--55---7-5-7-|
E|-55------55---------------55------------5---5-|

Repeat Verse, Pre-chorus and Chorus listening to the song.

-Stig-

Passing Time:
(H.)
e|--------*-*--*-*-|
B|--------*-*--*-*-|
G|7--7-7--7-*--*-*-| 8X
D|7--7-7----7--*-7-|
A|5--5-5-------7---|
E|-----------------|

CHORUS
"Too close is too far away from you, you are the one and only sign..."
e|---------------------------------------------------------------------------|
B|---------------------------------------------------------------------------|
G|---------------------------------------------------------------------------|
D|9-9-9-9-9-9-9-9-5-5-5-5-5-5-5-5-5-9-9-9-9-9-9-9-9-9-9-5-5-5-5-5-5-5-5------|
A|9-9-9-9-9-9-9-9-5-5-5-5-5-5-5-5-5-9-9-9-9-9-9-9-9-9-9-5-5-5-5-5-5-5-5------|
E|7-7-7-7-7-7-7-7-3-3-3-3-3-3-3-3-3-7-7-7-7-7-7-7-7-7-7-3-3-3-3-3-3-3-3------|

"To say this world was meant for us I never knew all I needed was time..."

e|2-3-5-3-2-3-2---232-------2-3-2------------------------------------------|
B|--------------3-----3---3-------3-5-3------------------------------------|
G|-------------------------------------------------------------------------|
D|-------------------------------------------------------------------------|
A|-------------------------------------------------------------------------|
E|-------------------------------------------------------------------------|

Repeat Verse
Repeat Chours
e|--------------------------------------|
B|--------------------------------------|
G|7-7-XXXX------------------------------|
D|7-7-XXXX-9-9-XXXX-5-5-5-5-5-5-5-5-5-5-| 4X
A|5-5-XXXX-9-9-XXXX-5-5-5-5-5-5-5-5-5-5-|
E|---------7-7-XXXX-3-3-3-3-3-3-3-3-3-3-|

e|--------------------------------|
B|--------------------------------|
G|--------7-7-7-7-----------------|
D|9-9-9-9-7-7-7-7-5-5-5-5-5-5-5-5-| 2X
A|9-9-9-9-5-5-5-5-5-5-5-5-5-5-5-5-|
E|7-7-7-7---------3-3-3-3-3-3-3-3-|


e|-----------------------------------------|
B|-----------------------------------------|
G|-----------------------------------------|
D|7-5-4--7-5-4--7-5-4--7-5-4-------5-7-5-4-| 2X
A|---------------------------5-5-5---------|
E|-----------------------------------------|


Bridge PartI:
"can we make it through today?.."

BRidge
"I'm never too far away, I'm never too close behind,..."
e|----------------------------------|
B|----------------------------------|
G|--------9-9-9-9-------------------|
D|7-7-7-7-9-9-9-9-5-5-5-5-7-5-4-5-7-| 4X
A|7-7-7-7-7-7-7-7-5-5-5-5-----------|
E|5-5-5-5---------3-3-3-3-----------|

Broken Sound:

intro
e|-------3----------3--------------3------------------------------------------|
B|----------3---------3--------------3----------------------------------------|
G|----------------------------------------------------------------------------|
D|---2------------0-------------0---------------------------------------------|
A|----------------------------3--------------2-----3--------------------------|
E|----------------------------------------3-----------------------------------|


e|------3-----------3----------3--------3-------------------------------------|
B|--------3-----------3-----------3-----3-------------------------------------|
G|--------------------------------------0-------------------------------------|
D|--------------------------0-----------0-------------------------------------|
A|--2-----------0----------3------------2-------------------------------------|
E|--------------------------------------3-------------------------------------|

"i wake up......"
e|-------3----------3--------------3------------------------------------------|
B|----------3---------3--------------3----------------------------------------|
G|-----------------------------------------------------------( 4x's )---------|
D|---2------------0-------------0---------------------------------------------|
A|----------------------------3--------------2-----3--------------------------|
E|----------------------------------------3-----------------------------------|

e|----------------------------------------------------------------------------|
B|--------------------------1-------------------------------------------------|
G|----------0-------------------0---------------------------------------------|
D|------2---------------------------2--------------0-----0--------------------|
A|---2------------------3----------------------2------------2-------2-3-2-----|
E|-------------------------------------------3--------3-----------3-----------|

Intro Again
e|-------3----------3--------------3------------------------------------------|
B|----------3---------3--------------3----------------------------------------|
G|-----------------------------------------------------------( 4x's )---------|
D|---2------------0-------------0---------------------------------------------|
A|----------------------------3--------------2-----3--------------------------|
E|----------------------------------------3-----------------------------------|

"and i can be the one......"
distorted
e|---------------------------------------------------------------------------|
B|---------------------------------------------------------------------------|
G|---9----7-----------5------------------------------------------------------|
D|---9----7-----5-----5------------------------------------------------------|
A|---7----5-----5-----3------------------------------------------------------|
E|--------------3------------------------------------------------------------|

"and my heart aches...."
e|---------------------------------------------------------------------------|
B|---------------------------------------------------------------------------|
G|----5------7---------------------------------------------------------------|
D|----5------7---------------------------------------------------------------|
A|----3------5------------3--5----------3---5--------------------------------|
E|-----------------3---6---------3---6---------------------------------------|

"and i can be the one....."
e|---------------------------------------------------------------------------|
B|---------------------------------------------------------------------------|
G|---------------------------------------------------------------------------|
D|------6----9------------4----7--------2---5--------------------------------|
A|---7----------------5--------------3-----------------------3---------------|
E|-------------------------------------------------3----6--------------------|

Never Sometimes:
Mainly G A and D power chords. With some riffs from gtr.2

intro./verse

e--------------------------------------------------------------------|
B--------------------------------------------------------------------|
G---77-X-----77-X-----77-X-----77-X----------------------------------|
D---77-X777--77-X777--77-X777--77-X777-777-555555555555555-77777777--|
A---55-X777--55-X777--55-X777--55-X777-777-555555555555555-77777777--|
E-------555------555------555------555-555-333333333333333-55555555--|

"I never wanted........"
Play that 2 times. Then...

Pre-Chorus.
Gtr. 1 is just playin those power chords.

e--------------------------------------------------------------------|
B--------------------------------------------------------------------|
G----777777----------------------------------------------------------|
D----777777-555555-777777-----2x-------------------------------------|
A----555555-555555-777777--------------------------------------------|
E-----------333333-555555--------------------------------------------|

"Somtimes I....."
During this Gtr. 2 does a riff something like this...

e--------------------------------------------------------------------|
B--------------------------------------------------------------------|
G--------------------------------------------------------------------|
D--------------------------------7p5--777777-------------------------|
A----555555-------------------7p5-------------555555--77777777-------|
E------------333333--5555555-----------------------------------------|

Chorus?
Gtr. 1 does the same chords as in Pre-Chorus.
Gtr. 2 does a riff like this...
(Slide into each Chord)

e--------------------------------------------------------------------|
B--------------------------------------------------------------------|
G-------7------------------------9-9--7------------------------------|
D--------------5-------7-XX---7---------------5------7---X-77--------|
A----\5------------------XX------------------------------X-77--------|
E-----------\3------\5---XX\5--------------\3-----\5-----X-55--------|

"Can't catch up with your words their hard to follow...."

Repeat all the above once more
Verse
Pre-Chorus
Chorus
Then.....

The Bridge.......
play with effect or just muffle with your hand.

e--------------------------------------------------------------------|
B--------------------------------------------------------------------|
G----777-----------------77--99--------------------------------------|
D----777--555--777--555--77--99--------------------------------------|
A----555--555--777--555--55--77--------------------------------------|
E---------333--555--333----------------------------------------------|

"Time....will wrap around me...."

Then finally...

e--------------------------------------------------------------------|
B--------------------------------------------------------------------|
G----77-XX-77-XX-77-XX-77-XX-77-7777-XX------------------------------|
D----77-XX-77-XX-77-XX-77-XX-77-7777-XX-5-555--7-777777--------------|
A----55-XX-55-XX-55-XX-55-XX-55-5555-XX-5-555--7-777777--------------|
E---------------------------------------3-333--5-555555--------------|

Play that until the end.

The Goodbye Song:
Verse
e|---------------------------------------------------------------------------|
B|---------------------------------------------------------------------------|
G|--9----------------9-9-9-9-9-11-9-8-9-8-----------------------------9--8---|
D|--9----7--9------------------------------------7--9------9-----------------|
A|--7----7--9------------------------------------7--9----7-7----7--9---------|
E|-------5--7------------------------------------5--7-----------5--7---------|

Pre-Chorus
e|---------------------------------------------------------------------------|
B|---------------------------------------------------------------------------|
G|------------------------------------------------------------------------9--|
D|--2----4----9--------2----4----6----4--------2--4--9------2--4--6--4----x--|
A|--0----2----7--------0----2----4----2--------0--2--7------0--2--4--2----7--|
E|---------------------------------------------------------------------------|

Pre-Chorus (cont'd)
e|---------------------------------------------------------------------------|
B|---------------------------------------------------------------------------|
G|---------------------------------------------------------------------------|
D|-----6-----2-----6--4--------9---6---2---6-4-------------------------------|
A|-----4-----0-----4--2--------7---4---0---4-2-------------------------------|
E|---------------------------------------------------------------------------|

Chorus
e|---------------------------------------------------------------------------|
B|---------------------------------------------------------------------------|
G|-------------------------------------------2---1--------2---1--------1-2---|
D|-------4----2----6--4---------4--------------------------------------------|
A|--2----2----0----4--2----2----2----0-----------0---------------------------|
E|--0----------------------0-------------------------------------------------|

Post Chorus
e|---------------------------------------------------------------------------|
B|---------------------------------------------------------------------------|
G|---------------------------------------------------------------------------|
D|--------------------------------------------------6--7--6--7-6-7-6----4----|
A|-------4----6----7--------------------------4------------------------------|
E|-------2----4----5---------------------------------------------------------|


THATS IT GUYS. HOPE YOU ENJOY MY FIRST ALBUM TABBED:D PEACE OUT
Tap to rate this tab
# A B C D E F G H I J K L M N O P Q R S T U V W X Y Z