Song name
# A B C D E F G H I J K L M N O P Q R S T U V W X Y Z

New Found Glory - New Found Glory tab

Artist:New Found Glory
Album:New Found Glory
Year:1999
Tabbed by: NoFX_2525

1. Better Off Dead.
2.Dressed To Kill.
3.Sincerely Me.
4.Hit Or Miss.
5.Second To Last.
6.Eyesore.
7.Sucker.
8.Vegas.
9.Black And Blue.
10.Boy Crazy.
11.All About Her.
12.Ballad For Lost Romantics.

Here you go guys. I waited and waited till the album "New Found GLory" from New Found
Glory would finally be tabbed. But no, noone tabbed it, so I decided to tab it out.
Note that SOng number 3 ( Sincerely Me) has got Chords and tabs and DONT THINK THAT I
COPIED AND PASTED EVERYTHING FROM THAT SONG!!just because it has that. I did that on
purpose so that you all have the lyrics too. PLease rate this tab because it took me a
damn long time to tab this out! Thanks and DONT FORGET TO RATE ;)

Sincerely,

          NoFX_2525!

                      SO HERE IT IS:THE ALBUM TAB!

1.Better Off Dead:
Eb|-----------------------------|
Bb|-----------------------------|
Gb|-5-5-------------------------|
Db|-5-5---5-5---3-3---7-7-5-5---|
Ab|-3-3---5-5---3-3---7-7-5-5---|
Eb|-------3-3---1-1---5-5-3-3---|

Intro and verses (guitar two):

Eb|---------------------------------------------|
Bb|---------------------------------------------|
Gb|-5-5-5-5-5-5-5-5-5-5-5-5-5-5-5-5-5-5-5-5-5---|
Db|-5-5-5-5-5-5-5-5-5-5-5-5-5-5-5-5-5-5-5-5-5---|
Ab|-3-3-3-3-3-3-3-3-3-3-3-3-3-3-3-3-3-3-3-3-3---|
Eb|---------------------------------------------|

Pre chorus:

Eb|---------------------------------------------------------------|
Bb|---------------------------------------------------------------|
Gb|---------------------------------------------------------------|
Db|-3-3---7-7-5-5-3-3---7-7-5-5-3-3---7-7-5-5-3-3---7-7-7-5-5-5---|
Ab|-3-3---7-7-5-5-3-3---7-7-5-5-3-3---7-7-5-5-3-3---7-7-7-5-5-5---|
Eb|-1-1---5-5-3-3-1-1---5-5-3-3-1-1---5-5-3-3-1-1---5-5-5-3-3-3---|

Chorus (1st, 2nd, and 4th time):

Eb|---------------------------------------------------------------------|
Bb|---------------------------------------------------------------------|
Gb|-5---5---5---9---7---5---9---7---5-5---5-5-5-5---5-5-5-5---5-5-5-5---|
Db|-5---5---5---9---7---5---9---7---5-5---5-5-5-5---5-5-5-5---5-5-5-5---|
Ab|-3---3---3---7---5---3---7---5---3-3---3-3-3-3---3-3-3-3---3-3-3-3---|
Eb|---------------------------------------------------------------------|

Chorus (3rd time):

Eb|---------------------------------------------------------------------|
Bb|---------------------------------------------------------------------|
Gb|-5---5---5---9---7---5---9---7---5-5---9-9-7-7---9-9-7-7---9-9-7-7---|
Db|-5---5---5---9---7---5---9---7---5-5---9-9-7-7---9-9-7-7---9-9-7-7---|
Ab|-3---3---3---7---5---3---7---5---3-3---7-7-5-5---7-7-5-5---7-7-5-5---|
Eb|---------------------------------------------------------------------|

Post chorus:

Eb|-------------------|
Bb|-------------------|
Gb|-5-5---------------|
Db|-5-5-x-7-5-5-x-3---|
Ab|-3-3-x-7-5-5-x-3---|
Eb|-----x-5-3-3-x-1---|


2.Dressed To Kill:
Intro
e|---------------------------------------------------------------------------|
B|---------------------------------------------------------------------------|
G|--7--9---------------------------------------------------------------------|
D|--7--9---------------------------------------------------------------------|
A|--5--7---------------------------------------------------------------------|
E|---------------------------------------------------------------------------|

Guitar 1
e|---------------------------------------------------------------------------|
B|---------------------------------------------------------------------------|
G|------------7--9-----------------------------------------------------------|
D|--7---6--4--7--9-----------------------------------------------------------|
A|--7---6--4--5--7-----------------------------------------------------------|
E|--5---4--2-----------------------------------------------------------------|

Lead Guitar (Chad)
e|------12--10--9------------------------------------------------------------|
B|--10-----------------------------------------------------------------------|
G|---------------------------------------------------------------------------|
D|---------------------------------------------------------------------------|
A|---------------------------------------------------------------------------|
E|---------------------------------------------------------------------------|

Verse (Palm Mute)
e|---------------------------------------------------------------------------|
B|---------------------------------------------------------------------------|
G|---------------------------------------------------------------------------|
D|---7--6--4--2--------------------------------------------------------------|
A|---7--6--4--2--------------------------------------------------------------|
E|---5--4--2--0--------------------------------------------------------------|

Owe it to the world, but you owe it to yourself....
e|---------------------------------------------------------------------------|
B|---------------------------------------------------------------------------|
G|---------------------------------------------------------------------------|
D|--7--9--4--2---------------------------------------------------------------|
A|--7--9--4--2---------------------------------------------------------------|
E|--5--7--2--0---------------------------------------------------------------|

 Prechorus  You're not here.....
e|---------------------------------------------------------------------------|
B|---------------------------------------------------------------------------|
G|------------7--6-----------------------------------------------------------|
D|--7-hold----7--6-----------------------------------------------------------|
A|--7---------5--4-----------------------------------------------------------|
E|--5------------------------------------------------------------------------|

Chorus
e|---------------------------------------------------------------------------|
B|---------------------------------------------------------------------------|
G|------------7--9-----------------------------------------------------------|
D|--7---6--4--7--9-----------------------------------------------------------|
A|--7---6--4--5--7-----------------------------------------------------------|
E|--5---4--2-----------------------------------------------------------------|

End Breakdown
e|---------------------------------------------------------------------------|
B|---------------------------------------------------------------------------|
G|--7--4---------------------------------------------------------------------|
D|--7--4--4--6--7---222--7--222----------------------------------------------|
A|--5--2--4--6--7---222--7--222----------------------------------------------|
E|--------2--4--5---000--5--000----------------------------------------------|

3.Sincerely Me:
B5  A   G   C    F#
e|--- --- --- --- ---- --- -------|
B|--- --- --- --- ---- --- -------|
G|--- --- --- --- ---- ------- ---|
D|--- -9- -7- -5- -10- -4- ---|
A|--- -9- -7- -5- -10- -4- ---|
E|--- -7- -5- -3- --8- -2- ---|

Intro: Bass
G|---------------------------------------------------------------------------|
D|------4-5-------4-5-----4-4-5-9-5------------------------------------------|
A|---------------------------------------------------------------------------|
E|---33--------33------77----------------------------------------------------|

[All of this is within the intro]
Dear your name here. Its been a long time very long time. Since ive heard your
voice and I bet she never thought i was.
[A LR]
....So sorry so, I got a hard time very hard time seeing less of yooouuu
[  Scream this part out ] [A]PM
I never thought you kneewwww.
G  G   A  A   C       G  G   A  A   C                 G  G   A  A   C
.. So can you seeeeee your seeing less of me darliiiing. And your blind to the
G G          A  A   C         G F G           G  F  G            G  F  G
fact that my hearts stoping. .............And im as good as deeeeeeead........
G  F  G
And im as good as deeeeeead.
[Intro
Dear I forgot your name again just picking up her letsoff[BR]oh yeaaah.
                                       [A LR]
This is the part where you leave me.....So sorry so, I've had a hard time very
hard time seeing less of
       [  Scream this part out ] [A]PM]
yoooou I never thought you kneeeeew.
G  G   A  A   C              G  G   A  A   C
....So can you seeeeeee your seeing less of me darling. And your blind to
G  G   A  A   C           G  G   A  A   C      G  G   A  A   C         G  G
the fact that my hearts stoping. So can you seee your seeing less of me darling.
A  A   C             G  G   A  A   C               G  F  G               G  F  G
And your blind to the fact that my hearts stoping. .....And im as good as deead.
              G  F  G
[
Bridge:
guitar one
e|------------------------------------------------------|
B|------------------------------------------------------|
G|------------------------------------5555555555555555--|
D|--5555555555555555-7777777777777777-5555555555555555--|
A|--5555555555555555-7777777777777777-3333333333333333--|
E|--3333333333333333-5555555555555555-------------------|
   PM---------------------------------------------------|PM
Listen to song to figure this part out.
e|---------------------------------------------------------------------------|
B|---------------------------------------------------------------------------|
G|-----------------------5---------------------------------------------------|
D|---5-5-5-5-----5-5-5-5-5------5-5-5-5----5-5-5-5-7-------------------------|
A|---5-5-5-5-----5-5-5-5-3------5-5-5-5----5-5-5-5-7-------------------------|
E|---3-3-3-3-----3-3-3-3--------3-3-3-3----3-3-3-3-5-------------------------|

guitar two
e|---------------------------------------------------------------------------|
B|---------------------------------------------------------------------------|
G|-------7-7-7-6-6-6-4-4-6-6-6-6-6-6-6---------------------------------------|
D|---------------------------------------------------------------------------|
A|---------------------------------------------------------------------------|
E|---------------------------------------------------------------------------|
[This...this is all..... I have ....to saaaay .....to saaaaay..GO]
G  G   A  A   C              G  G   A  A   C                 G  G   A  A   C
....So can you seeeeee your seeing less of me darling. And your blind to the fact that
                        G  G   A  A   C                             G  G   A  A   C
my hearts stoping. .....So can you seeeeee so can you see your seeing less of me darling.
            G  G   A  A   C
And your blind to the fact that my hearts stopiiiing stoping
G  G   A  A   C              G  G   A  A   C                 G  G   A  A   C
....So can you seeeeee your seeing less of me darling. And your blind to the fact that

my hearts stoping stopiiing stoping stoping.

4.Hit Or Miss:
Intro:
----------------------------------------|
----------------------------------------|
-9-9-x-9--------------------------------|   Play this three times with a very fast
-9-9-x-9--9-9-x-9-11-11-x-11-7-7-x-7----|             and continuous motion.
-7-7-x-7--9-9-x-9-11-11-x-11-7-7-x-7----|
----------7-7-x-7--9---9-x--9--5-5-x-5--|
    E             B             C            A
Bridge:
--------------------------------------|
--------------------------------------|
-9-9-9-9------------------------------|         After the third time you play the
-9-9-9-9-9-9-9-9-11-11-11-11-7-7-7-7--|      intro, play this. It is all palm muted.
-7-7-7-7-9-9-9-9-11-11-11-11-7-7-7-7--|       Play the intro three more times after
---------7-7-7-7--9--9--9--9-5-5-5-5--|                             this.
 ^ ^  ^ ^  ^  ^ ^ ^   ^   ^   ^    ^  ^  ^ ^  ^
    E          B               C             A

--------------------|
--------------------|
---9----------------|
---9-----9------7---|   Play this after you play the intro three times more. Let each chord
---7-----9------7---|                                           ring.
----------7------5--|
Melody:
---------------------------------------------------------------------|
---------------------------------------------------------------------|
------------------4-4-4----4-4-4----6-6-6---6-6-6---4-4--4---4--4-4--|
-2-2-2---2-2-2----4-4-4----4-4-4----6-6-6---6-6-6---4-4--4---4--4-4--|
-2-2-2---2-2-2----2-2-2----2-2-2----4-4-4---4-4-4---2-2--2---2--2-2--|
-0-0-0---0-0-0-------------------------------------------------------|
 ^  ^      ^ ^         ^  ^       ^  ^          ^ ^      ^  ^       ^  ^        ^   ^
        E                    B                 C#                   B
-------------------------------------------------------------------|
-------------------------------------------------------------------|
------------------4-4-4---4-4-4---6-6-6---6-6-6---9-9-9-9-9-9-9-9--|
-2-2-2---2-2-2----4-4-4---4-4-4---6-6-6---6-6-6---9-9-9-9-9-9-9-9--|
-2-2-2---2-2-2----2-2-2---2-2-2---4-4-4---4-4-4---7-7-7-7-7-7-7-7--|
-0-0-0---0-0-0-----------------------------------------------------|
 ^ ^       ^ ^          ^  ^      ^  ^      ^  ^       ^  ^
         E                   B                   C#                 E



Chorus:
----------------------------------------------------------------------|
----------------------------------------------------------------------|
--9-9-9---------------------------------------------------------------|
--9-9-9--9-9-9-11-11-11-11-11-11--11--11------------------------------|
--7-7-7--9-9-9-11-11-11-11-11-11--11--11------------------------------|
-----------7-7-7---9--9--9---9---9---9---9----9-----------------------|
  ^ ^      ^  ^       ^    ^  ^    ^   ^    ^   ^     ^
    E        B                     B
---------------------------------------------|
---------------------------------------------|
-9-9-9---------------------------------------|
-9-9-9-9-9-9--7-7-7-7-7-7-7-7----------------|
-7-7-7-9-9-9--7-7-7-7-7-7-7-7----------------|
----------7-7-7-5-5-5-5-5-5-5-5--------------|
 ^ ^     ^  ^    ^  ^ ^  ^ ^  ^  ^ ^
   E        B             A
5.Second To Last:
Intro (toggle the selector switch)
e|---------------------------------------------------------------------------|
B|---------------------------------------------------------------------------|
G|-9~------------------------------------------------------------------------|
D|-9~------------------------------------------------------------------------|
A|-7~------------------------------------------------ pick scrape -----------|
E|----------------------------------------->->->->->->->->->->->->->->->->->-|
              ^_^_^_^_^_

Post Intro x 2
e|---------------------------------------------------------------------------|
B|---------------------------------------------------------------------------|
G|-9-9-------9-9--6-6--9-9---------------------------------------------------|
D|-9-9--7-7--9-9--6-6--9-9--7-7--6-x-x-x-7--9-9------------------------------|
A|-7-7--7-7--7-7--4-4--7-7--7-7--6-x-x-x-7--9-9------------------------------|
E|------5-5-----------------5-5--4-x-x-x-5--7-7------------------------------|

Verse x 4
e|---------------------------------------------------------------------------|
B|---------------------------------------------------------------------------|
G|-9-99-9--------------------------------------------------------------------|
D|-9-99-9--7-77-7--9-99-9--7-77-7--------------------------------------------|
A|-7-77-7--7-77-7--9-99-9--7-77-7--------------------------------------------|
E|---------5-55-5--7-77-7--5-55-5--------------------------------------------|
     **      **      **      **

Pre Chorus x 3
e|---------------------------------------------------------------------------|
B|---------------------------------------------------------------------------|
G|---------------6-6-6-6-----------------------------------------------------|
D|-2-2--7-7--2-2-6-6-6-6-----------------------------------------------------|
A|-2-2--7-7--2-2-4-4-4-4-----------------------------------------------------|
E|-0-0--5-5--0-0-------------------------------------------------------------|

Pre Chorus x 1 (part 2)
e|---------------------------------------------------------------------------|
B|---------------------------------------------------------------------------|
G|---------------------------------------------------------------------------|
D|-2-2--7-7--7--7-7-7-7-7-7-7-7--9--9-9-9-9-9-9-9-9--11-11-11-11-11----------|
A|-2-2--7-7--7--7-7-7-7-7-7-7-7--9--9-9-9-9-9-9-9-9--11-11-11-11-11----------|
E|-0-0--5-5--5--5-5-5-5-5-5-5-5--7--7-7-7-7-7-7-7-7---9--9--9--9--9----------|
                * * * * * * * *     * * * * * * * *      *  *  *  *

Chorus x 4 (enter with a pick scrape)
e|---------------------------------------------------------------------------|
B|---------------------------------------------------------------------------|
G|-9-9-------9-9-------9-9---------------------------------------------------|
D|-9-9--7-7--9-9--6-6--9-9--7-7--6-x-x-x-7--9-9------------------------------|
A|-7-7--7-7--7-7--6-6--7-7--7-7--6-x-x-x-7--9-9------------------------------|
E|------5-5-------4-4-------5-5--4-x-x-x-5--7-7------------------------------|



Post Chorus
e|---------------------------------------------------------------------------|
B|---------------------------------------------------------------------------|
G|------------4-2-------------2-4--------------------------------------------|
D|-22-2-2-22--4-2--22-2-2-22--2-4--------------------------------------------|
A|-22-2-2-22--2-0--22-2-2-22--0-2--------------------------------------------|
E|-00-0-0-00-------00-0-0-00-------------------------------------------------|
   **     **       **     **
Verse x 2

Pre chorus x 3

Pre Chorus (part 2) x 1

Chorus x 4

Finish
e|---------------------------------------------------------------------------|
B|---------------------------------------------------------------------------|
G|---------------------------------------------------------------------------|
D|-2-2-2-2---6--7--2-2-2-2---6--7--2-2-2-2---6--7--9-9-9-9---7-7-------------|
A|-2-2-2-2---6--7--2-2-2-2---6--7--2-2-2-2---6--7--9-9-9-9---7-7-------------|
E|-0-0-0-0---4--5--0-0-0-0---4--5--0-0-0-0---4--5--7-7-7-7---5-5-------------|

e|---------------------------------------------------------------------------|
B|---------------------------------------------------------------------------|
G|---------------------------------------------------------------------------|
D|-2-2-2-2---6--7--2-2-2-2---6--7--2-2-2-2---6--7--9-9-9-9---77-7--77-7--2~--|
A|-2-2-2-2---6--7--2-2-2-2---6--7--2-2-2-2---6--7--9-9-9-9---77-7--77-7--2~--|
E|-0-0-0-0---4--5--0-0-0-0---4--5--0-0-0-0---4--5--7-7-7-7---55-5--55-5--0~--|
                                                             **    **

-------------------------------------------------------------------------------
Second to Last
-------------------------------------------------------------------------------

Intro (toggle the selector switch)
e|---------------------------------------------------------------------------|
B|---------------------------------------------------------------------------|
G|-9~------------------------------------------------------------------------|
D|-9~------------------------------------------------------------------------|
A|-7~------------------------------------------------ pick scrape -----------|
E|----------------------------------------->->->->->->->->->->->->->->->->->-|
              ^_^_^_^_^_

Post Intro x 2
e|---------------------------------------------------------------------------|
B|---------------------------------------------------------------------------|
G|-9-9-------9-9--6-6--9-9---------------------------------------------------|
D|-9-9--7-7--9-9--6-6--9-9--7-7--6-x-x-x-7--9-9------------------------------|
A|-7-7--7-7--7-7--4-4--7-7--7-7--6-x-x-x-7--9-9------------------------------|
E|------5-5-----------------5-5--4-x-x-x-5--7-7------------------------------|

Verse x 4
e|---------------------------------------------------------------------------|
B|---------------------------------------------------------------------------|
G|-9-99-9--------------------------------------------------------------------|
D|-9-99-9--7-77-7--9-99-9--7-77-7--------------------------------------------|
A|-7-77-7--7-77-7--9-99-9--7-77-7--------------------------------------------|
E|---------5-55-5--7-77-7--5-55-5--------------------------------------------|
     **      **      **      **

Pre Chorus x 3
e|---------------------------------------------------------------------------|
B|---------------------------------------------------------------------------|
G|---------------6-6-6-6-----------------------------------------------------|
D|-2-2--7-7--2-2-6-6-6-6-----------------------------------------------------|
A|-2-2--7-7--2-2-4-4-4-4-----------------------------------------------------|
E|-0-0--5-5--0-0-------------------------------------------------------------|

Pre Chorus x 1 (part 2)
e|---------------------------------------------------------------------------|
B|---------------------------------------------------------------------------|
G|---------------------------------------------------------------------------|
D|-2-2--7-7--7--7-7-7-7-7-7-7-7--9--9-9-9-9-9-9-9-9--11-11-11-11-11----------|
A|-2-2--7-7--7--7-7-7-7-7-7-7-7--9--9-9-9-9-9-9-9-9--11-11-11-11-11----------|
E|-0-0--5-5--5--5-5-5-5-5-5-5-5--7--7-7-7-7-7-7-7-7---9--9--9--9--9----------|
                * * * * * * * *     * * * * * * * *      *  *  *  *

Chorus x 4 (enter with a pick scrape)
e|---------------------------------------------------------------------------|
B|---------------------------------------------------------------------------|
G|-9-9-------9-9-------9-9---------------------------------------------------|
D|-9-9--7-7--9-9--6-6--9-9--7-7--6-x-x-x-7--9-9------------------------------|
A|-7-7--7-7--7-7--6-6--7-7--7-7--6-x-x-x-7--9-9------------------------------|
E|------5-5-------4-4-------5-5--4-x-x-x-5--7-7------------------------------|



Post Chorus
e|---------------------------------------------------------------------------|
B|---------------------------------------------------------------------------|
G|------------4-2-------------2-4--------------------------------------------|
D|-22-2-2-22--4-2--22-2-2-22--2-4--------------------------------------------|
A|-22-2-2-22--2-0--22-2-2-22--0-2--------------------------------------------|
E|-00-0-0-00-------00-0-0-00-------------------------------------------------|
   **     **       **     **
Verse x 2

Pre chorus x 3

Pre Chorus (part 2) x 1

Chorus x 4

Finish
e|---------------------------------------------------------------------------|
B|---------------------------------------------------------------------------|
G|---------------------------------------------------------------------------|
D|-2-2-2-2---6--7--2-2-2-2---6--7--2-2-2-2---6--7--9-9-9-9---7-7-------------|
A|-2-2-2-2---6--7--2-2-2-2---6--7--2-2-2-2---6--7--9-9-9-9---7-7-------------|
E|-0-0-0-0---4--5--0-0-0-0---4--5--0-0-0-0---4--5--7-7-7-7---5-5-------------|

e|---------------------------------------------------------------------------|
B|---------------------------------------------------------------------------|
G|---------------------------------------------------------------------------|
D|-2-2-2-2---6--7--2-2-2-2---6--7--2-2-2-2---6--7--9-9-9-9---77-7--77-7--2~--|
A|-2-2-2-2---6--7--2-2-2-2---6--7--2-2-2-2---6--7--9-9-9-9---77-7--77-7--2~--|
E|-0-0-0-0---4--5--0-0-0-0---4--5--0-0-0-0---4--5--7-7-7-7---55-5--55-5--0~--|
                                                             **    **
6.Eyesore:
INTRO/VERSE
GUITAR 1
        I MISS YOU. . .    THOSE WORDS. . .    I AM HOME. . .  THE RINGS
------------------------------------------------------------------------------|
------------------------------------------------------------------------------|
-----------------------------------------------6-----------------------9------|
----7----------------------4-------------------6-----------------------9------|
----7----------------------4-------------------4-----------------------7------|
----7----------------------4--------------------------------------------------|

GUITAR 2
------------------------------------------------------------------------------|
------------------------------------------------------------------------------|
-----------------------------------------------6---------6-/-7----6----4------|
----7----------------------4-------------------6---------6-/-7----6----4------|
----7----------------------4-------------------4---------4-/-5----4----2------|
----7----------------------4--------------------------------------------------|


PRE CHORUS
GUITAR 1

     SAAAAAAAAAAAAAY   YOUR NAAAAAAAAME  WHEN I FALL WHEN I HIT THE BOTTOM
------------------------------------------------------------------------------|
------------------------------------------------------------------------------|
------------------------------------------------------------------------------|
-----4-4-4-4-4-4-4-4---0-0-0-0-0-0-0-0---xxxx--7---xxxx--7---2----------------|
-----4-4-4-4-4-4-4-4---0-0-0-0-0-0-0-0---xxxx--7---xxxx--7---2----------------|
-----4-4-4-4-4-4-4-4---0-0-0-0-0-0-0-0---xxxx--7---xxxx--7---2----------------|

GUITAR 2

---------------------------------------------------------3--1-|---6-------------|
-----2---2/3\\2-0-3------2---2-3-2-0------------0--2-----------|-----5--3--2----|
-------2------------------2---------3------3------------------|-----------------|
--------------------------------------------------------------|-----------------|
--------------------------------------------------------------|-----------------|
--------------------------------------------------------------|-----------------|


CHORUS
GUITAR 1

  GO GIRL   PLAY ON   THE BOYS WILL STAY      EVEN IF YOUR GONE
-------------------------------------------|----------------------------------|
-------------------------------------------|----------------------------------|
-------------------------------------------|---x-7--x-6-----------------------|
---7-7-xxx--12-12-xxx--4-4-4-4--0-0-0-0----|---x-7--x-6---7-------------------|
---7-7-xxx--12-12-xxx--4-4-4-4--0-0-0-0----|---x-5--x-4---7-------------------|
---7-7-xxx--12-12-xxx--4-4-4-4--0-0-0-0----|--------------7-------------------|


GUITAR 2

-------------------------------------------|----------------------------------|
-------------------------------------------|----------------------------------|
-------------9-9-xxx-----------------------|---x-7--x-6-----------------------|
---7-7-xxx---9-9-xxx---4-4-4-4--0-0-0-0----|---x-7--x-6---7-------------------|
---7-7-xxx---7-7-xxx---4-4-4-4--0-0-0-0----|---x-5--x-4---7-------------------|
---7-7-xxx-------------4-4-4-4--0-0-0-0----|--------------7-------------------|


GUITAR 3

------------------------------------------------------------------------------|
------------------------2b--2b--2b--2b--0-------------------------------------|
-------------------------------------------3----------------------------------|
------------------------------------------------------------------------------|
------------------------------------------------------------------------------|
------------------------------------------------------------------------------|


GUITAR 3 CONTD. . .

------------------------------------------------------------------------------|
-------------5------5-----2/3/2--0--------------------------------------------|
---------3------3------3-------------3----------------------------------------|
------------------------------------------------------------------------------|
------------------------------------------------------------------------------|
------------------------------------------------------------------------------|

7.Vegas:
Intro
e |------------------------------------------|
B |------------------------------------------|
G |-------------------------------6-6--------|
D |-2-2--6-7--2-2--6-7--2-2--6-7--6-6--6-7---|
A |-2-2--6-7--2-2--6-7--2-2--6-7--4-4--6-7---|
E |-0-0--4-5--0-0--4-5--0-0--4-5-------4-5---|

e |------------------------------------------|
B |------------------------------------------|
G |-9-9-9-9-9-9-9-9-9-9-9-9-9-9-9-9-9-9-9-9--|
D |------------------------------------------|
A |-7-7-7-7-7-7-7-7-7-7-7-7-7-7-7-7-7-7-7-7--|
E |------------------------------------------|

Verse
e |---------------------------------------------|
B |---------------------------------------------|
G |----------------------------------6-6--------|
D |-2-2-------2-2-------2-2----------6-6--6-7---|
A |-2-2-------2-2-------2-2----------4-4--6-7---|
E |-0-0-------0-0-------0-0---------------4-5---|

Intro 2
e |------------------------------------------|
B |------------------------------------------|
G |-------------------------------6-6--------|
D |-2-2--6-7--2-2--6-7--2-2--6-7--6-6--6-7---|
A |-2-2--6-7--2-2--6-7--2-2--6-7--4-4--6-7---|
E |-0-0--4-5--0-0--4-5--0-0--4-5-------4-5---|

Intro 2
e |------------------------------------------|
B |------------------------------------------|
G |-9-9-9-9-9-9-9-9-9-9-9-9-9-9-9-9-9-9-9-9--|
D |------------------------------------------|
A |-7-7-7-7-7-7-7-7-7-7-7-7-7-7-7-7-7-7-7-7--|
E |------------------------------------------|

Verse 2
e |---------------------------------------------|
B |---------------------------------------------|
G |----------------------------------6-6--------|
D |-2-2-------2-2-------2-2----------6-6--6-7---|
A |-2-2-------2-2-------2-2----------4-4--6-7---|
E |-0-0-------0-0-------0-0---------------4-5---|

Verse 2
e |------------------------------------------|
B |------------------------------------------|
G |-9-9-9-9-9-9-9-9-9-9-9-9-9-9-9-9-9-9-9-9--|
D |------------------------------------------|
A |-7-7-7-7-7-7-7-7-7-7-7-7-7-7-7-7-7-7-7-7--|
E |------------------------------------------|

Chorus : (x4)
e |----------------------------------------------------|
B |----------------------------------------------------|
G |----------------------------------------------------|
D |-2-2--7--6-6--7--4-4--6--7-7--6---------2--2--2-2---|
A |-2-2--7--6-6--7--4-4--6--7-7--6---------2--2--2-2---|
E |-0-0--5--4-4--5--2-2--4--5-5--4---------0--0--0-0---|

Breakdown
e |--------------------------------------------------------------|
B |--------------------------------------------------------------|
G |--------------------------------------------------------------|
D |-2-2-----2-2-----2-2-------2-2-----2-2-----2-2--------2-2-2---|
A |-2-2-----2-2-----2-2-------2-2-----2-2-----2-2--------2-2-2---|
E |-0-0-----0-0-----0-0-------0-0-----0-0-----0-0--------0-0-0---|
						      [palm mute]

8.Sucker:
Intro
e|---------------------------------------------------------------------------------|
B|---------------------------------------------------------------------------------|
G|-6-6--6---13\\11---11\\10---10\\8---8\\6---6-------------------------------------|
D|-6-6--6--------------------------------------------------------------------------|
A|-4-4--4---11\\-9----9\\-8----8\\6---6\\4---4-------------------------------------|
E|---------------------------------------------------------------------------------|

e|---------------------------------------------------------------------------------|
B|---------------------------------------------------------------------------------|
G|-6-6--6---13\\11---11\\10---10\\8---8\\6---6/8---6-------------------------------|
D|-6-6--6--------------------------------------------------------------------------|
A|-4-4--4---11\\-9----9\\-8----8\\6---6\\4---4/6---4-------------------------------|
E|---------------------------------------------------------------------------------|

Verse x 4
e|---------------------------------------------------------------------------|
B|---------------------------------------------------------------------------|
G|-6-6--6-6------------------------------------------------------------------|
D|-6-6--6-6---4-4--4-4-------------------------------------------------------|
A|-4-4--4-4---4-4--4-4-------------------------------------------------------|
E|------------2-2--2-2-------------------------------------------------------|

Pre Chorus x 1
e|---------------------------------------------------------------------------|
B|---------------------------------------------------------------------------|
G|-3-3-3-3-----------3-3-3-3-----------3-3-3-3-------------------------------|
D|-3-3-3-3--4-4-4-4--3-3-3-3--4-4-4-4--3-3-3-3--4-4-4-4--6--6--6--6----------|
A|-1-1-1-1--4-4-4-4--1-1-1-1--4-4-4-4--1-1-1-1--4-4-4-4--6--6--6--6----------|
E|----------2-2-2-2-----------2-2-2-2-----------2-2-2-2--4--4--4--4----------|

Chorus x 3
e|---------------------------------------------------------------------------|
B|---------------------------------------------------------------------------|
G|-6-6-6--6-6-6--------------------------------------------------------------|
D|-6-6-6--6-6-6--8-8-8--6-6-6------------------------------------------------|
A|-4-4-4--4-4-4--8-8-8--6-6-6------------------------------------------------|
E|---------------6-6-6--4-4-4------------------------------------------------|

Post Chorus x 2
e|---------------------------------------------------------------------------|
B|---------------------------------------------------------------------------|
G|-----6---------------------------------------------------------------------|
D|-4~--6---6-----------------------------------------------------------------|
A|-4~--4---6-----------------------------------------------------------------|
E|-2~------4-----------------------------------------------------------------|

Intro
e|---------------------------------------------------------------------------------|
B|---------------------------------------------------------------------------------|
G|-6-6--6---13\\11---11\\10---10\\8---8\\6---6-------------------------------------|
D|-6-6--6--------------------------------------------------------------------------|
A|-4-4--4---11\\-9----9\\-8----8\\6---6\\4---4-------------------------------------|
E|---------------------------------------------------------------------------------|

e|--------------------------------------------------------------------------------|
B|--------------------------------------------------------------------------------|
G|-6-6--6---13\\11---11\\10---10\\8---8-------------------------------------------|
D|-6-6--6-------------------------------------------------------------------------|
A|-4-4--4---11\\-9----9\\-8----8\\6---6-------------------------------------------|
E|--------------------------------------------------------------------------------|

Verse x 4

Pre Chorus x 1

Chorus x 4

Post Chorus x 2

Bridge (verse) x 4

Interlude (pre chorus/clean with flanger)

Chorus x 3

Post Chorus x 2

Finish x 4
e|-----------------------------------------------------------------------------|
B|-----------------------------------------------------------------------------|
G|-6-6-6--6-6-6----------------------------------------------------------------|
D|-6-6-6--6-6-6--8-8--8-8--6-6--6-6--------------------------------------------|
A|-4-4-4--4-4-4--8-8--8-8--6-6--6-6--------------------------------------------|
E|---------------6-6--6-6--4-4--4-4--------------------------------------------|

9.Black And Blue:
Intro
e|---------------------------------|
B|---------------------------------|
G|---------------------------------|
D|----------6---4----------6--4----|
A|---7---6--4---2---7---6--4--2----|
E|---5---4----------5---4----------|

Verse
e|---------------------------------|
B|---------------------------------|
G|---------------------------------|
D|--------6------------------------|
A|----2---4---7--------------------|
E|----0-------5--------------------|

Chorus
e|---------------------------------|
B|---------------------------------|
G|---------------------------------|
D|-----6---------6-----------------|
A|-----4--2---7--4---2--7--6-------|
E|--------0---5------0--5--4-------|

Post-Chorus
e|---------------------------------|
B|---------------------------------|
G|---------------------------------|
D|---6-----------------------------|
A|---4---2---7---------------------|
E|-------0---5---------------------|

Verse
e|---------------------------------|
B|---------------------------------|
G|---------------------------------|
D|-------6-------------------------|
A|---2---4---7---------------------|
E|---0-------5---------------------|

10.Boy Crazy:
Intro/Verse x 6
e|---------------------------------------------------------------------------|
B|---------------------------------------------------------------------------|
G|-2-2--2-2----6-6--7-7------------------------------------------------------|
D|-2-2--2-2----6-6--7-7----4-4--4-4----2-2--2-2------------------------------|
A|-0-0--0-0----4-4--5-5----4-4--4-4----2-2--2-2------------------------------|
E|-------------------------2-2--2-2----0-0--0-0------------------------------|

Pre Chorus x 1
e|---------------------------------------------------------------------------|
B|---------------------------------------------------------------------------|
G|-777777777777777--6666666666666666--------------------7777777777777777-----|
D|-777777777777777--6666666666666666--7777777777777777--7777777777777777-----|
A|-555555555555555--4444444444444444--7777777777777777--5555555555555555-----|
E|------------------------------------5555555555555555-----------------------|
   ***************  ****************  ****************  ****************

e|---------------------------------------------------------------------------|
B|---------------------------------------------------------------------------|
G|-111111111111111111111111--13131313--14141414141414141414141414141414------|
D|-111111111111111111111111--13131313--14141414141414141414141414141414------|
A|--9-9-9-9-9-9-9-9-9-9-9-9--11111111--12121212121212121212121212121212------|
E|---------------------------------------------------------------------------|

e|---------------------------------------------------------------------------|
B|---------------------------------------------------------------------------|
G|-2-2-44467-----------------------------------------------------------------|
D|-2-2-44467-----------------------------------------------------------------|
A|-0-0-22245-----------------------------------------------------------------|
E|---------------------------------------------------------------------------|

Chorus x 1
e|---------------------------------------------------------------------------|
B|---------------------------------------------------------------------------|
G|-2-2-2-2-2-2--7-7-7-7-7-7---------------7-7-7-7-7-7------------------------|
D|-2-2-2-2-2-2--7-7-7-7-7-7--7-7-7-7-7-7--7-7-7-7-7-7------------------------|
A|-0-0-0-0-0-0--5-5-5-5-5-5--7-7-7-7-7-7--5-5-5-5-5-5------------------------|
E|---------------------------5-5-5-5-5-5-------------------------------------|

e|---------------------------------------------------------------------------|
B|---------------------------------------------------------------------------|
G|-2-2-2-2-2-2--7-7-7-7-7-7---------------7-7-7-7-7-7--2---------------------|
D|-2-2-2-2-2-2--7-7-7-7-7-7--7-7-7-7-7-7--7-7-7-7-7-7--2---------------------|
A|-0-0-0-0-0-0--5-5-5-5-5-5--7-7-7-7-7-7--5-5-5-5-5-5--0---------------------|
E|---------------------------5-5-5-5-5-5-------------------------------------|

Verse x 6

Pre Chorus x 1

Chorus x 1


Solo x 4
e|-------1-------1-----------------------------------------------------------|
B|-2p1h2---1h2p1-------------------------------------------------------------|
G|---------------------------------------------------------------------------|
D|---------------------------------------------------------------------------|
A|---------------------------------------------------------------------------|
E|---------------------------------------------------------------------------|

Bridge
e|---------------------------------------------------------------------------|
B|---------------------------------------------------------------------------|
G|----------------------------------------------------7-7-7-7--7-7-7-7-------|
D|-2-2-2-2-2-2-2-2--7-7-7-7-7-7-7-7-------------------7-7-7-7--7-7-7-7-------|
A|-0-0-0-0-0-0-0-0--5-5-5-5-5-5-5-5--7-7-7-7-7-7-7-7--5-5-5-5--5-5-5-5-------|
E|-----------------------------------5-5-5-5-5-5-5-5-------------------------|
   * * * * * * * *  * * * * * * * *  * * * * * * * *

Chorus

Solo x 4

Finish
e|---------------------------------------------------------------------------|
B|---------------------------------------------------------------------------|
G|-2-2---2-2-----------------------------------------------------------------|
D|-2-2---2-2-----------------------------------------------------------------|
A|-0-0---0-0-----------------------------------------------------------------|
E|---------------------------------------------------------------------------|

11.All About Her:
Chorus/Intro
e|-----------------------------------------------------------------------------|
B|-----------------------------------------------------------------------------|
G|----------------------4-4---4--------6-6---6---------------------------------|
D|----2-2---2-----------4-4---4--------6-6---6-------------7-7---7----------2--|
A|----2-2---2-----------2-2---2--------4-4---4-------------7-7---7----------2--|
E|----0-0---0--2--4-------------2--4-------------2--4------5-5---5---4---2--0--|

Verse
e|------------------------------------------------------------------|
B|------------------------------------------------------------------|
G|------------------------------------------------------------------|
D|---2--2-2-~~~~~2--2--2*-------7p6--7p6--7p6-7-7p6-7p6--9----------|
A|---2--2-2-~~~~~2--2--2*----------7----7----------7---7------------|
E|---0--0-0-~~~~~0--0--0*-------------------------------------------|

Pre Chorus
e|-------------------------------------------------|
B|-------------------------------------------------|
G|-----------4--------6---4-4--6--4-4--2-2---------| 2X
D|---2--2-2--4--7--7--6---4-4--6--4-4--2-2--2-2-2--|
A|---2--2-2--2--7--7--4---2-2--4--2-2--0-0--2-2-2--|
E|---0--0-0-----5--5------------------------0-0-0 -|

Breakdown
e|------------------------------------------------------------------------|
B|----5-4-5------5-4-5-4-5-----5-4-5-4-5-----5-4-5-4-5--------------------|
G|------------------------------------------------------------------------|
D|------------------------------------------------------------------------|
A|------------------------------------------------------------------------|
E|------------------------------------------------------------------------|

12.Ballad For The Lost Romantics:
INTRO/INTERLUDE

|--------------------------------|
|--------------------------------|
|-----------------10101010101010-|
|-10101010101010--10101010101010-| x7
|-10101010101010---8-8-8-8-8-8-8-|
|--8-8-8-8-8-8-8-----------------|


VERSE

|---------------------|
|---------------------|
|---------------------|
|-55555555--333333333-| x2
|-55555555--333333333-|
|-33333333--111111111-|


|--------------------------------|
|--------------------------------|
|-----------------10101010101010-|
|-10101010101010--10101010101010-| x4
|-10101010101010---8-8-8-8-8-8-8-|
|--8-8-8-8-8-8-8-----------------|

|--------------------------------|
|--------------------------------|
|-555555555555555555555555555555-|
|-555555555555555555555555555555-|
|-333333333333333333333333333333-|
|--------------------------------|

VERSE

CHORUS

|----------------------------------------------------------------------------------|
|----------------------------------------------------------------------------------|
|-5--5--------------5--5-----------------7--5--5-------------5--5----------------7-|
|-5--5-2--2--3-33---5--5-2--2--3-33-xxx--7--5--5-2--2--3-33--5--5-2--2--3-33-xxx-7-|
|-3--3-2--2--3-33---3--3-2--2--3-33-xxx--5--3--3-2--2--3-33--3--3-2--2--3-33-xxx-5-|
|------0--0--1-11--------0--0--1-11-xxx----------0--0--1-11-------0--0--1-11-xxx---|


|--------|
|--------|
|--------|
|----2-3-| x7
|-3------|
|--------|

|---------------------------|
|---------------------------|
|-555555--------------------|
|-555555-222222-33333333333-| x2
|-333333-222222-33333333333-|
|--------000000-11111111111-|

INTERLUDE 2
VERSE
CHORUS
AFTER CHORUS
INTERLUDE 2
VERSE
CHORUS

End:
|---------------------------|
|---------------------------|
|-555555--------------------|
|-555555-222222-33333333333-|
|-333333-222222-33333333333-|
|--------000000-11111111111-|


                  THAT'S IT HOPE YOU ENJOY AND RATE IT WELL! PEACE OUT
Tap to rate this tab
 
# A B C D E F G H I J K L M N O P Q R S T U V W X Y Z