Song name
# A B C D E F G H I J K L M N O P Q R S T U V W X Y Z

New Found Glory - Head On Collission tab

Help us improve GuitareTab! Take a short survey!
Highlighted       Show chord diagrams
New found glory
Head on collision
Sticks and stones
paramore_fans@yahoo.com

Chords used:
A    -  x02220
Bm   -  x24432
D    -  xx0232
A/C# -  x4222x
F#m  -  244222
E    -  022100

Intro:

Guitar 2:
e|------------------|
B|------------------|
G|------------------|
D|------------------| (x2)
A|-5-4-5-7-5-4-5-4--|
E|------------------|

Guitar 1:

 A--Bm----D-A/C#-D-A/C# (x2)


Verse 1:
A
  I've been waiting for a good day.
F#m
  I've been holding back long enough.
A
  I've been waiting to tell you something.
F#m    A
  It's not the falling of the temperature,
         F#m            D
  That's making all our bones run cold.
A                                        F#m             D
  It's the breeze you make, the presence felt when your around me.


Refrain:
       E
And it feels like, I'm at an all time low.


Chorus:
         A          Bm
Slightly bruised and broken,
         D    A/C#  D A/C#
From our head on collision.
     A               Bm
I've never seen this side of you,
 D      A/C#   D       A/C#
Another tragic case of feeling,
A           Bm
Bruised and broken,
         D    A/C#  D A/C#
From our head on collision.
     A               Bm
I've never seen this side of you,
 D      A/C#   D         A/C#
Another tragic case, and I'm still...


Verse 2:
A
  Waiting for a good day.
F#m
  I think I held this long enough.
A
  I Think is safe to tell you somethings.
F#m    A
  It's not the what you say to people,
           F#m             D
  And it's not the way you look at me.
A                                        F#m
  It's the way you present your self for all of,
           D
Your worst critics to see.


(Repeat Refrain)
(Repeat Chorus except last line)

 D      A/C#   D         A/C#
Another tragic case, and you were gone...

Cool solo:

Guitar 2:
e|----------------------------------|-----------------------------------|
B|----------------------------------|-----------------------------------|
G|---------6-------9-------6--6h7p6-|-----------------------------------|
D|-----7-------7-------7------------|-----7p0-9p0-7p0-----6h7-----6h7---| (x4)
A|-0-0---0---0---0---0---0----------|-0-0-------------5-5-----7-7-------|
E|----------------------------------|-----------------------------------|

or you can also do the cool solo in this easier way.

e|-----------------0----------------|-----------------------------------|
B|---------2---------------2--2h3p2-|---------0-------------------------|
G|-----2-------2-------2------------|-----2-------2--------1h2-----1h2--|
D|----------------------------------|-------0---0---0-0-0------2-2------| (x4)
A|-0-0---0---0---0---0---0----------|-0-0-------------------------------|
E|----------------------------------|-----------------------------------|


Guitar 1: A----A/C#--D--E (x2)

Bridge: (while doing the cool solo at 3rd and 4th time)
         A
You were gone.
                       E              D
All this time you just didn't know it yet
E        A
You were gone.
                       E              D
All this time you just didn't know it yet
E        D-----E(hold)
You were gone

Guitar 2:
e|------------------|
B|------------------|
G|-----1h2-----1h2--|
D|-2-2-----2-2------|
A|------------------|
E|------------------|

Guitar 1: D----E (Hold)

Guitar 2:
e|------------------|
B|------------------|
G|-----1h2-----1h2--|
D|-2-2-----2-2------|
A|------------------|
E|------------------|

Guitar 1: D----E (Hold)

(Repeat Refrain)
(Repeat Chorus except last line)

  D      A/C#   D
Another tragic case,


Outro: While Doing The Cool Solo in first bar only

A-Bm-D     A/C#   D       A/C#
   Another tragic case of feeling,
A          Bm
Bruised and broken.
 D      A/C#   D        A/C#
Another tragic case and I'm still,
A                Bm
   Still waiting for a good day,
D        A/C#          D    A/C#
   Still waiting for a good day.

A--Bm--D----

Guitar 2:
Guitar 2:
e|------------------|
B|------------------|
G|------------------|
D|------------------| (x2)
A|-5-4-5-7-5-4-5-4--|
E|------------------|

Guitar 1: A(Hold)
Related for Head On Collission tab