Song name
# A B C D E F G H I J K L M N O P Q R S T U V W X Y Z

New Found Glory - Boulders tab

BOULDERS - New Found Glory from the album "Coming Home"
____________________________________________________________
Tabbed by: Byron Andrada
Email: spank_ie05@yahoo.com
This is for Jester and Charyl Eusebio....Ch33Rs!!!
Baseline Drive Rules!!!!

This is how my band play this song...this is my complete
version of this tab... enjoi!!!

Tuning: standard tuning
Tempo: 4/4

INTRO/VERSE:
|---------------------------------------------------]
|---------------------------------------------------]
|---------------------------------------------------]
|----5-5-5-5----5-5-5-5----5-5-5-5-5-5-5-5----------]X7
|---7-7-7-7----5-5-5-5----3-3-3-3-3-3-3-3-----------]
|---------------------------------------------------]
    "I feel locked away........"


CHORUS:
|---------------------------------------------------]
|---------------------------------------------------]
|--------------7-7-7-7----5-5-5-5-5-5-5-5-----------]
|12\2-2-2-2----7-7-7-7----5-5-5-5-5-5-5-5-----------]X2
|12\2-2-2-2----5-5-5-5----3-3-3-3-3-3-3-3-----------]
|12\0-0-0-0----x-x-x-x----x-x-x-x-x-x-x-x-----------]
 "medicate me again........"


repeat INTRO/VERSE 4x

repeat CHORUS


SOLO 1
|----------------------------------------------------------------------------------|
|------------------------------------------8810101212-----10101212-----101088------|
|---4h54\20--4h54\20--4h54\2/7--7-5-555-555------------999----------777------------|
|----------------------------------------------------------------------------------|
|----------------------------------------------------------------------------------|
|----------------------------------------------------------------------------------|

 ---------------------------------]
 ---------------------------------]
 ---4p30--77p50--4p30-------------]
 ---------------------------------]x2
 ---------------------------------]
 ---------------------------------]

repeat CHORUS

OUTRO:

|---]
|---]
|---]
|-5~]x1
|-5~]
|-3~]
 "I never said that I didn't need you.....


|----------------------------------------------]
|----------------------------------------------]
|-------------7-7-7-7----5-5-5-5-5-5-5-5-------]
|--5-5-5-5----7-7-7-7----5-5-5-5-5-5-5-5-------]to end
|--5-5-5-5----5-5-5-5----3-3-3-3-3-3-3-3-------]
|--3-3-3-3-------------------------------------]
  "I never said that I didn't need you.....


SOLO 2
|-------------------15-1515--12p14/10-----8\10-8-7--------7--8-77~~5----87--10108---887---------|
|------------/8-88----------------------8------------8h10-----------------8------8-----8--------|
|-----4h5\2-------------------------------------------------------------------------------------|
|-----------------------------------------------------------------------------------------------|
|-----------------------------------------------------------------------------------------------|
|-----------------------------------------------------------------------------------------------|

 -------------------------------------------------------------]
 ------------/8-887-555---------------------------------------]
 -----4h5\2-------------7---7-5-4-------4---4-44-2------------]
 -------------------------5---------5-7-------------5---------]
 -------------------------------------------------------------]
 -------------------------------------------------------------]


| /  slide up
| \  slide down
| h  hammer-on
| p  pull-off
| ~  let ring
| +  harmonic
| x  Mute note

LYRICS:

I feel locked away
with the weight of the world on my shoulders
crushing on my head are boulders
made of lies and dust from all of us

what of the bonds we've made
that have started to fade
we can't control the time
but right now I'll take what I can get out of my life

medicate me again
so I fall away
medicate me now
so I fall away

I feel torn between
two different sides of an opinion
don't know what state I've been in
don't believe in trust, for only one of us

what of the progress made
that night we all forgave
it was a thought out crime
but you should take what you can get out of this life

I never said that I didn't need you
put down your arms
and wrap them both right around me
right around me

If you have some comments or suggestions feel free to email me at spank_ie05@yahoo.com   
              /bon
Tap to rate this tab
 
# A B C D E F G H I J K L M N O P Q R S T U V W X Y Z