Song name
# A B C D E F G H I J K L M N O P Q R S T U V W X Y Z

New Found Glory - Familiar Landscapes tab

-----------------------------------------------------------------------------
			     Familiar Landscapes - New Found Glory
-----------------------------------------------------------------------------

Tuning:DADGBe 

Intro
e|-------------------|
B|-------------------|
G|-------------------|
D|-5-----------------|                               5 
A|-3---3---0---3--5--|x2 on 2nd playing miss out the 5
D|-----3---0---3--5--|

Verse
e|--------------------|-------|
B|--------------------|-------|
G|--------------------|-------|
D|-5------------------|x4-----|
A|-3x8--3----0----3---|----5--|
D|------3x8--0x8--3x8-|----5--|

Chorus
e|--------------------|
B|--------------------|
G|--------------------|
D|-5------------------|
A|-3---3---0---3---5--|x3
D|-----3---0---3---5--|

Haven't got the bridge yet will try and figure it out!

Intro
Verse
Chorus
Verse
Chorus
Bridge
Verse
Chorus x 2

any corrections email me, titch_1903@hotmail.com









Tap to rate this tab
# A B C D E F G H I J K L M N O P Q R S T U V W X Y Z