Song name
# A B C D E F G H I J K L M N O P Q R S T U V W X Y Z

New Found Glory - To Good To Be tab

Ok, I chose to play power chords for most of the chords because they sound like they 
up the best with the mix on the cd.  Play the open chords if you want, but I think this 
best.

Intro (x2)
e-----------------------------------------------|
b--------2------2-------------------------------|
g----6---2------2-------------------------------|
d----6---0---4--0-------------------------------|
a----4-------4----------------------------------|
E------------2----------------------------------|

Verse(Same thing)(x4)
e-----------------------------------------------|
b--------2------2-------------------------------|
g----6---2------2-------------------------------|
d----6---0---4--0-------------------------------|
a----4-------4----------------------------------|
E------------2----------------------------------|

Chorus
e-----------------------------------------------|
b----------------------2-------2-----------2----|
g----9-------------6---2---6---2---6---4---2----|
d----9---7--(x2)---6---0---6---0---6---4---0----|
a----7---7---------4-------4-------4---2--------|
E--------5--------------------------------------|

Verse(x4)
e-----------------------------------------------|
b--------2------2-------------------------------|
g----6---2------2-------------------------------|
d----6---0---4--0-------------------------------|
a----4-------4----------------------------------|
E------------2----------------------------------|

Chorus
e-----------------------------------------------|
b----------------------2-------2-----------2----|
g----9-------------6---2---6---2---6---4---2----|
d----9---7--(x2)---6---0---6---0---6---4---0----|
a----7---7---------4-------4-------4---2--------|
E--------5--------------------------------------|

Solo

e------------------------------------------------------------------|
b--0---------------------0-------------------0---------------------|
g-----6--9--11s13-11-9------6--9--11-14-13------6--9--11s13-11-9---|
d------------------------------------------------------------------|
a------------------------------------------------------------------|
E------------------------------------------------------------------|

e------------------------------------------------------------------|
b--0-------------------12------------------------------------------|
g-----6--9--11-14-13------9--11s13-13hold---13p11-11p9-9p6-6p4-----|
d------------------------------------------------------------------|
a------------------------------------------------------------------|
E------------------------------------------------------------------|

Chorus
e------------------------------------------------|
b----------------------2-------2-----------2-----|
g----9-------------6---2---6---2---6---4---2-----|
d----9---7--(x4)---6---0---6---0---6---4---0-----|(x2)
a----7---7---------4-------4-------4---2---------|
E--------5---------------------------------------|

Outro
e------------------------------------------------|
b--------2------2---------------2~---------------|
g----6---2------2-------6~--4~--2~---------------|
d----6---0---4--0-(x2)--6~--4~--0~---------------|
a----4-------4----------4~--2~-------------------|
E------------2-----------------------------------|
Tap to rate this tab
# A B C D E F G H I J K L M N O P Q R S T U V W X Y Z