Song name
# A B C D E F G H I J K L M N O P Q R S T U V W X Y Z

New Found Glory - 2s And 3s tab

2’s & 3’s
New Found Glory


Intro pt. 1
e|-------------------------------------------------------|
B|-------------------------------------------------------|
G|---------------------------------------------10-9-10~--|
D|--xxxx--3-3-3-x-x--5-5-5--x-x--7-7-7--x-x--8--x-x—x----| x2
A|--xxxx--3-3-3-x-x--5-5-5--x-x--7-7-7--x-x--8--8-7--8~--|
E|--xxxx--1-1-1-x-x--3-3-3--x-x--5-5-5--x-x--6-----------|

Intro pt. 2
e|---------------------------------------------|
B|---------------------------------------------|
G|--5~--xxxx-5~--xxxx-5~--0h5-0h5-0h5-0h5--5~--|
D|--x---xxxx-x---xxxx-x--------------------x---| x2
A|--3~--xxxx-3~--xxxx-3~-------------------3~--|
E|---------------------------------------------|


Verse (“I sat and stared.....”)
e|----------------------------------|
B|----------------------------------|
G|------------------555555--333333--|
D|--333333--333333--555555--333333--| x8
A|--333333--333333--333333--111111--|
E|--111111--000000------------------|
       

Intro pt. 1 (“I feel it calling.....”)

Intro pt. 2


Chorus (“And I know.....”)
e|------------------------------------------------------------------|
B|------------------------------------------------------------------|
G|----------333333--777777--999999--555555--777777--333333--555555--|
D|--333333--333333--777777--999999--555555--777777--333333--555555--| x2
A|--333333--111111--555555--777777--333333--555555--111111--333333--|
E|--111111----------------------------------------------------------|


Solo
e|------------------------------------------------------------------|
B|------------------------------------------------------------------|
G|----3-2----3-2----3-2----3-2--5-5-5-5--7-7-7-7--3-3-3-3--5-5-5-5--|
D|--3------3------3------3------------------------------------------|
A|------------------------------------------------------------------|
E|------------------------------------------------------------------|

e|------------------------------------------------------|
B|------------------------------------------------------|
G|--3p2----3p2----3p2----3p2-------------7h5--3-3h5p3---|
D|------3------3------3------3---3~--3h5----------------|
A|------------------------------------------------------|
E|------------------------------------------------------|

Interlude
e|------|
B|------|
G|------|
D|--3~--|
A|--3~--|	
E|--1~--|


Verse x4 (“I sat and stared.....”)

Intro pt. 1 (“I feel it calling.....”)


Fill
e|-----------------------------------------------------------|
B|-----------------------------------------------------------|
G|--5~--xxxx-5~--xxxx-5~--xxxx-5~--0h7-0h7-0h7-0h7-----------|
D|--x---xxxx-x---xxxx-x---xxxx-x--------------------3-3-3-3--|
A|--3~--xxxx-3~--xxxx-3~--xxxx-3~-------------------1-1-1-1--|
E|-----------------------------------------------------------|
Pm                                                    . .


Chorus (“And I know.....”)


Outro (“A song with no.....”)
e|-------------------------------------------------------------|
B|-------------------------------------------------------------|
G|----3-2----3-2----3-2----3-2--5-5-5-5--7-7-7-7--10-10-10-10--|
D|--3------3------3------3-------------------------------------|
A|-------------------------------------------------------------|
E|-------------------------------------------------------------|

e|------------------------------------------------------------------------------|
B|--13----13--------------13----13--------------13-13-13--15-15-15--18-18-18^~--|
G|-----10----10h12p10-10-----10----10h12p10-10----------------------------------|
D|------------------------------------------------------------------------------|
A|------------------------------------------------------------------------------|
E|------------------------------------------------------------------------------|
 
e|-----------------------------------------------|
B|----------------------------5-3~--4-2----------|
G|------5-3-2------5-3-2----------------3h5p3-2--|
D|--2-3--------2-3--------2-3--------------------|
A|-----------------------------------------------|
E|-----------------------------------------------|

e|--------------------------------------------------|
B|-------------------------5~--5~--2~---------------|
G|------5-3-2------5-3-2---------------3h5p3-2------|
D|--2-3--------2-3------------------------------3~--|
A|--------------------------------------------------|
E|--------------------------------------------------|
Tap to rate this tab
# A B C D E F G H I J K L M N O P Q R S T U V W X Y Z