Song name
# A B C D E F G H I J K L M N O P Q R S T U V W X Y Z

New Found Glory - Jy Suis Jamais Alle tab

BY f_sario@yahoo.com 
Lucena,Phils...
f_sario@yahoo.com
Cp #-09283150081
SHC(BSN) Lucena
http://profiles.friendster.com/37158911

Note- 

E5 A5 & B5 are chords for GtrII

Tuning- standard ( e bg d A E )

Intro-

GtrI-

  E5                          E5
|---------------------------|------------------------------|
|-8~-7-8~-7-10~-8h10p8---7~-|-8~--7-8~--7-10~--8h10p8---7~-|2x
|---------------------------|------------------------------|
|---------------------------|------------------------------|
|---------------------------|------------------------------|
|---------------------------|------------------------------|





I.
  E5                     A5                B5
|--------------------------------------------------------|
|-----------------------10--10-10---8-10---7-------------|
|-9--99-77--9--99--7-9-----------------------------------|
|--------------------------------------------------------|
|--------------------------------------------------------|
|--------------------------------------------------------|



  E5                                          A5              B5
|---------------|-----------------|--------------|----------------|
|-7-7----7-8----|--8-8--7-7--8----|-8-8--7-7--10-|-10-10-8-10-7---|
|-----9---------|-----------------|--------------|----------------|
|---------------|-----------------|--------------|----------------|
|---------------|-----------------|--------------|----------------|
|---------------|-----------------|--------------|----------------|

  E5                                          A5              B5
|-------------7-|-7-7---------7---|-7-7------7-8-|-8-8-7h8p7------|
|-7-7-8--10-8---|-----10-10-------|----10-10-----|------------10--|
|---------------|-----------------|--------------|----------------|
|---------------|-----------------|--------------|----------------|
|---------------|-----------------|--------------|----------------|
|---------------|-----------------|--------------|----------------|


  E5                                            A5              B5
|--------------7-|-7-7---------7---|-7-7------7-8-|-8-8-7h8p7------|
|-10-10-8-10-8---|-----10-10-------|----10-10-----|------------10~-|
|----------------|-----------------|--------------|----------------|
|----------------|-----------------|--------------|----------------|
|----------------|-----------------|--------------|----------------|
|----------------|-----------------|--------------|----------------|


II
  
  E5              A5               B5                    B5  
|-7--7-8--8--7~-|----7--8-8-10-8~-|-7-8--10-10--12-10~-|-7~---10~---7~--|
|---------------|-10--------------|--------------------|----------------|
|---------------|-----------------|--------------------|----------------|
|---------------|-----------------|--------------------|----------------|
|---------------|-----------------|--------------------|----------------|
|---------------|-----------------|--------------------|----------------|

  E5              A5               B5                    B5
|-7--7-8--8--7~-|----7--8-8-10-8~-|-7-8--10-10--12-10~-|-7~---10~---7~--|
|---------------|-10--------------|--------------------|----------------|
|---------------|-----------------|--------------------|----------------|
|---------------|-----------------|--------------------|----------------|
|---------------|-----------------|--------------------|----------------|
|---------------|-----------------|--------------------|----------------|

III.
  E5        E5       E5         E5          A5
|------9~-|------9~-|-------9~-|------9~--|------------------------------|
|-8-10----|-8-10----|--8-10----|-8-10-----|--7--8-10~--8-7-8-10~-8-------|
|---------|---------|----------|----------|------------------------------|
|---------|---------|----------|----------|------------------------------|
|---------|---------|----------|----------|------------------------------|
|---------|---------|----------|----------|------------------------------|


  E5                     A5                B5
|--------------------------------------------------------|
|-----------------------10--10-10---8-10---7-------------|
|-9--99-77--9--99--7-9-----------------------------------|
|--------------------------------------------------------|
|--------------------------------------------------------|
|--------------------------------------------------------|



  E5                                          A5              B5
|---------------|-----------------|--------------|----------------|
|-7-7----7-8----|--8-8--7-7--8----|-8-8--7-7--10-|-10-10-8-10-7---|
|-----9---------|-----------------|--------------|----------------|
|---------------|-----------------|--------------|----------------|
|---------------|-----------------|--------------|----------------|
|---------------|-----------------|--------------|----------------|

  E5                                          A5              B5
|-------------7-|-7-7---------7---|-7-7------7-8-|-8-8-7h8p7------|
|-7-7-8--10-8---|-----10-10-------|----10-10-----|------------10--|
|---------------|-----------------|--------------|----------------|
|---------------|-----------------|--------------|----------------|
|---------------|-----------------|--------------|----------------|
|---------------|-----------------|--------------|----------------|

  E5                                         A5             B5
|--------------7-|-7-7---------7---|-7-7------7-8-|-8-8-7h8p7----7-8------|
|-10-10-8-10-8---|-----10-10-------|----10-10-----|-----------10----10-12~|
|----------------|-----------------|--------------|-----------------------|
|----------------|-----------------|--------------|-----------------------|
|----------------|-----------------|--------------|-----------------------|
|----------------|-----------------|--------------|-----------------------|

Tap to rate this tab
# A B C D E F G H I J K L M N O P Q R S T U V W X Y Z