Guitaretab - guitar tabs
Song name
# A B C D E F G H I J K L M N O P Q R S T U V W X Y Z

New Found Glory - From The Screen To Your Stereo Part Ii tab

|---------------------------------------------------------------------------------|
|---------------------------------------------------------------------------------|
By-Francis
Lucena City,Philippines
Cp #- 09287150674 
E-add- f_sario@yahoo.com  
http://profiles.friendster.com/37158911
S H C lucena

|---------------------------------------------------------------------------------|
|---------------------------------------------------------------------------------|

Kiss Me Tab by New Found Glory, www.Ultimate-Guitar.Com

Gtr I ( e b g d A E ) - 
Gtr II ( e b g d A E ) - 

Intro-
Gtr I (clean)
    D            DM7             D7           DM7
|--x-x-x-xxxx-x--x-x-x-xxxx-x--x-x-x-xxxx-x--x-x-x-xxxx-x------|
|--7-7-7-7777-7--7-7-7-7777-7--7-7-7-7777-7--7-7-7-7777-7------|
|--7-7-7-7777-7--6-6-6-6666-6--5-5-5-5555-5--6-6-6-6666-6------|
|--7-7-7-7777-7--7-7-7-7777-7--7-7-7-7777-7--7-7-7-7777-7------|
|--5-5-5-5555-5--5-5-5-5555-5--5-5-5-5555-5--5-5-5-5555-5------|
|--------------------------------------------------------------|

Verse-

Gtr I (clean)
|--x-x-x-xxxx-x--x-x-x-xxxx-x--x-x-x-xxxx-x--x-x-x-xxxx-x------|
|--7-7-7-7777-7--7-7-7-7777-7--7-7-7-7777-7--7-7-7-7777-7------|
|--7-7-7-7777-7--6-6-6-6666-6--5-5-5-5555-5--6-6-6-6666-6------|
|--7-7-7-7777-7--7-7-7-7777-7--7-7-7-7777-7--7-7-7-7777-7------|
|--5-5-5-5555-5--5-5-5-5555-5--5-5-5-5555-5--5-5-5-5555-5------|
|--------------------------------------------------------------|

|--x-x-x-xxxx-x--x-x-x-xxxx-x--x-x-x-xxxx-x--------------------|
|--7-7-7-7777-7--7-7-7-7777-7--7-7-7-7777-7--------------------|
|--7-7-7-7777-7--6-6-6-6666-6--5-5-5-5555-5--------------------|
|--7-7-7-7777-7--7-7-7-7777-7--7-7-7-7777-7--------------------|
|--5-5-5-5555-5--5-5-5-5555-5--5-5-5-5555-5--------------------|
|--------------------------------------------------------------|

Breakdown-
Gtr I & II (dist)
|--------------------------------------------------------------|
|--------------------------------------------------------------|
|--------------------------------------------------------------|
|-5--5-5-5-5-5-5-5-5-5-5-5-5-5---------------------------------|
|-5--5-5-5-5-5-5-5-5-5-5-5-5-5---------------------------------|
|-3--3-3-3-3-3-3-3-3-3-3-3-3-3---------------------------------|
     * * * * * * * * * * * * *  
Chorus-
1.
Gtr I(dist)
|--------------------------------------------------------------|
|--------------------------------------------------------------|
|--------------------7-7-777--4-44-4444------------------------|
|-2-2-222--7-77-777--7-7-777--4-44-4444--2-2-222--7-77-777-----|
|-2-2-222--7-77-777--5-5-555--2-22-2222--2-2-222--7-77-777-----|
|-0-0-000--5-55-555----------------------0-0-000--5-55-555-----|

Gtr II(dist)
|--------------------------------------------------------------|
|--------------------------------------------------------------|
|-9-9-999--9-99-999--9-99-999-7-77-7777--9-9-999--9-99-999-----|
|-x-x-xxx--x-xx-xxx--x-xx-xxx-x-xx-xxxx--x-x-xxx--x-xx-xxx-----|
|-7-7-777--7-77-777--7-77-777-5-55-5555--7-7-777--7-77-777-----|
|--------------------------------------------------------------|

2.
Gtr I(dist)
|---------------------------------------------------------------|
|---------------------------------------------------------------|
|-7-7-7-7-7-7-7-7--7-7-7-7-7-7-7-7-7----------------------------|
|-7-7-7-7-7-7-7-7--7-7-7-7-7-7-7-7-7---2-2-222--7-77-777--------|
|-5-5-5-5-5-5-5-5--4-4-4-4-4-4-4-4-4---2-2-222--7-77-777--------|
|--------------------------------------0-0-000--5-55-555--------|
  * * * * * * * *  * * * * * * * * * 

Gtr II(dist)
|---------------------------------------------------------------|
|---------------------------------------------------------------|
|-77-----------77-----------------/----9-9-999--9-99-999--------|
|-77-----------77-----------------/----x-x-xxx--x-xx-xx---------|
|-55-44-55-44--55-44-55-44--------/----7-7-777--7-77-777--------|
|---------------------------------------------------------------|
  ** ** ** **  ** ** ** **  

3.
Gtr I(dist)
|---------------------------------------------------------------|
|---------------------------------------------------------------|
|--7-7--7-7--4-4------------------------------------------------|
|--7-7--7-7--4-4--7-7---55-5-55-5-555----7~---------------------|
|--5-5--4-4--2-2--7-7---55-5-55-5-555----7~---------------------|
|-----------------5-5---33-3-33-3-333----5~---------------------|
Gtr II(dist)
|---------------------------------------------------------------|
|---------------------------------------------------------------|
|--7-7--6-6--4-4--6-6---77-7-77-7-777-------7--6~---------------|
|--x-x--x-x--x-x--x-x---xx-x-xx-x-xxx----7----------------------|
|--5-5--4-4--5-5--4-4---55-5-55-5-555---------------------------|
|---------------------------------------------------------------|

Verse2-
1.
Gtr I (clean)
|--x-x-x-xxxx-x--x-x-x-xxxx-x--x-x-x-xxxx-x--x-x-x-xxxx-x------|
|--7-7-7-7777-7--7-7-7-7777-7--7-7-7-7777-7--7-7-7-7777-7------|
|--7-7-7-7777-7--6-6-6-6666-6--5-5-5-5555-5--6-6-6-6666-6------|
|--7-7-7-7777-7--7-7-7-7777-7--7-7-7-7777-7--7-7-7-7777-7------|
|--5-5-5-5555-5--5-5-5-5555-5--5-5-5-5555-5--5-5-5-5555-5------|
|--------------------------------------------------------------|


Gtr II (dist)
|--------------------------------------------------------------|
|--------------------------------------------------------------|
|--7-7-7-7777-7--6-6-6-6666-6--5-5-5-5555-5--6-6-6-6666-6------|
|--x-x-x-xxxx-x--x-x-x-xxxx-x--x-x-x-xxxx-x--x-x-x-xxxx-x------|
|--5-5-5-5555-5--5-5-5-5555-5--5-5-5-5555-5--5-5-5-5555-5------|
|--------------------------------------------------------------|


2.
Gtr I (clean)
|--x-x-x-xxxx-x--x-x-x-xxxx-x--x-x-x-xxxx-x--------------------|
|--7-7-7-7777-7--7-7-7-7777-7--7-7-7-7777-7--------------------|
|--7-7-7-7777-7--6-6-6-6666-6--5-5-5-5555-5--------------------|
|--7-7-7-7777-7--7-7-7-7777-7--7-7-7-7777-7--------------------|
|--5-5-5-5555-5--5-5-5-5555-5--5-5-5-5555-5--------------------|
|--------------------------------------------------------------|

Gtr II (dist)
|--------------------------------------------------------------|
|--------------------------------------------------------------|
|--7-7-7-7777-7--6-6-6-6666-6--5-5-5-5555-5--------------------|
|--x-x-x-xxxx-x--x-x-x-xxxx-x--x-x-x-xxxx-x--------------------|
|--5-5-5-5555-5--5-5-5-5555-5--5-5-5-5555-5--------------------|
|--------------------------------------------------------------|

Repeat Chorus-

Interlude-



Gtr I (dist)
|--------------------------------------------------------------|
|--------------------------------------------------------------|
|-77-------------66------------55---------------66-------------|
|-77-------------77------------77---------------77-------------|2x
|-55-------------55------------55---------------55-------------|
|--------------------------------------------------------------|

Gtr II (dist)
|--------------------------------------------------------------|
|-/-7~--5~--/10~-7~---5~--/10~-7~----5~----7~------------------|
|--------------------------------------------------------------|2x
|------------------------------------------------7~------------|
|--------------------------------------------------------------|
|--------------------------------------------------------------|


Chorus2-
1.
Drums
|--------------------------------------------------------------|
|--------------------------------------------------------------|
|--------------------------------------------------------------|
|--------------------------------------------------------------|
|--------------------------------------------------------------|
|--------------------------------------------------------------|


2.
Gtr I(dist)
|---------------------------------------------------------------|
|---------------------------------------------------------------|
|---------------------------------------------------------------|
|--------------------------------------2-2-222--7-77-777--------|
|--------------------------------------2-2-222--7-77-777--------|
|--------------------------------------0-0-000--5-55-555--------|
  
Gtr II(dist)
|---------------------------------------------------------------|
|---------------------------------------------------------------|
|---------------------------------/----9-9-999--9-99-999--------|
|---------------------------------/----x-x-xxx--x-xx-xx---------|
|---------------------------------/----7-7-777--7-77-777--------|
|---------------------------------------------------------------|
     

3.
Gtr I(dist)
|---------------------------------------------------------------|
|---------------------------------------------------------------|
|--7-7--7-7--4-4------------------------------------------------|
|--7-7--7-7--4-4--7-7---55-5-55-5-555----7~---------------------|
|--5-5--4-4--2-2--7-7---55-5-55-5-555----7~---------------------|
|-----------------5-5---33-3-33-3-333----5~---------------------|
Gtr II(dist)
|---------------------------------------------------------------|
|---------------------------------------------------------------|
|--7-7--6-6--4-4--6-6---77-7-77-7-777-------7--6~---------------|
|--x-x--x-x--x-x--x-x---xx-x-xx-x-xxx----7----------------------|
|--5-5--4-4--5-5--4-4---55-5-55-5-555---------------------------|
|---------------------------------------------------------------|

Outro-
Gtr I(dist)
|--------------------------------------------------------------|
|--------------------------------------------------------------|
|-77777-6-7--77777-6-7--77777-5-7--77777-6-7-------------------|
|-77777-7-7--77777-7-7--77777-7-7--77777-7-7-------------------|4x
|-55555-5-5--55555-5-5--55555-5-5--55555-5-5-------------------|
|--------------------------------------------------------------|

Gtr II
|--------------------------------------------------------------|
|-/-7~--5~--/10~-7~---5~--/10~-7~----5~----7~------------------|
|--------------------------------------------------------------|4x
|------------------------------------------------7~------------|
|--------------------------------------------------------------|
|--------------------------------------------------------------|


End -
Gtr I(dist)
|--------------------------------------------------------------|
|--------------------------------------------------------------|
|-7~~~~~~~~~~~~~~~~~~~-----------------------------------------|
|-7~~~~~~~~~~~~~~~~~~~-----------------------------------------|
|-5~~~~~~~~~~~~~~~~~~~-----------------------------------------|
|--------------------------------------------------------------|

Gtr II(dist)
|--------------------------------------------------------------|
|-/7~~~~~~~~~~~~~~~~~~-----------------------------------------|
|--------------------------------------------------------------|
|--------------------------------------------------------------|
|--------------------------------------------------------------|




|---------------------------------------------------------------------------------|
|---------------------------------------------------------------------------------|

It Aint Me Babe Tab by New Found Glory, www.Ultimate-Guitar.Com
New found glory-It Aint Me Babe

GtrI  ( e b g d A E )- dist

GtrII ( e b g d A E )- dist

Intro-

GtrI
|-----------------------------------------------------------------------|
|-----------------------------------------------------------------------|
|--7-7-7---------7-7-7--------------------------------------------------|
|--7-7-7--7-7-7--7-7-7--7-7-7----7-7-7-7-7--22--7-7-777-----------------|
|--5-5-5--7-7-7--5-5-5--7-7-7----7-7-7-7-7--22--7-7-777-----------------|
|---------5-5-5---------5-5-5----5-5-5-5-5--00--5-5-555-----------------|

|----------5----------------5-----|------------------------------------|
|-5-/7-7-7---5-5---5-/7-7-7---5-5-|------------------------------------|
|---------------------------------|-2-22-222-4h5p4-22-222--------------|
|---------------------------------|------------------------------------|
|---------------------------------|------------------------------------|
|---------------------------------|------------------------------------|

Verse-
GtrI& II
|-----------------------------------------------------------------------|
|-----------------------------------------------------------------------|
|-----------------------------------------------------------------------|
|-7-7-7-7-7-7-7--9-9-9-9-9-9-9-9--7-7-7-7--2-2-2-2--7-7-7-7-7-7---------|
|-7-7-7-7-7-7-7--9-9-9-9-9-9-9-9--7-7-7-7--2-2-2-2--7-7-7-7-7-7---------|
|-5-5-5-5-5-5-5--7-7-7-7-7-7-7-7--5-5-5-5--0-0-0-0--5-5-5-5-5-5---------|


Refrain
GtrI& II
|-----------------------------------------------------------------------|
|-----------------------------------------------------------------------|
|-----------------------------------------------------------------------|
|-77-777-777-777--99-999-999-999--77-777-777-777--99-999-999-999--------|2x
|-77-777-777-777--99-999-999-999--77-777-777-777--99-999-999-999--------|
|-55-555-555-555--77-777-777-777--55-555-555-555--77-777-777-777--------|
  ** *** *** ***  ** *** *** ***  ** *** *** ***  ** *** *** ***


Pre-
GtrI& II
|-----------------------------------------------------------------------|
|-----------------------------------------------------------------------|
|-777777777--9999999999-------------------------------------------------|
|-777777777--9999999999-------------------------------------------------|
|-555555555--7777777777-------------------------------------------------|
|-----------------------------------------------------------------------|

Chorus-
GtrI& II
|-----------------------------------------------------------------------|
|-----------------------------------------------------------------------|
|----------7777-9999----------7777-9999---------------------------------|
|-77777777-7777-9999-77777777-7777-9999--77777777-----------------------|
|-77777777-5555-7777-77777777-5555-7777--77777777-----------------------|
|-55555555-----------55555555------------55555555-----------------------|


Repeat Intro,Verse
GtrI
|--------------------------|   -------------------------------|
|--------------------------|   -------------------------------|
|---------4---4------------|   ----------4---4----------------|
|-7-2-7-2-4-4-4--2--4--6---|3x --7-2-7-2-4-4-4----------------|
|-7-2-7-2-2-4-2--2--4--6---|   --7-2-7-2-2-4-2----------------|
|-5-0-5-0---2----0--2--4---|   --5-0-5-0---2------------------|

GtrII
|-55xx555555-77xx77xx777xx-|   --121214141212141412121414-----|
|-xx5555xx55-xx77xx77xx777-|   -------------------------------|
|--------------------------|3x   -----------------------------|
|--------------------------|   -------------------------------|
|--------------------------|   -------------------------------|
|--------------------------|   -------------------------------|

Repeat Pre,Chorus
GtrI
|----------------------------|  ---------------------|
|----------------------------|  ---------------------|
|-2-2-2-2-2-2-2-4-4-4-4-4-4-4|  -4-------------------|
|-2-------------4------------|3x-4-------------------|
|-0-------------2------------|  -2-------------------|
|----------------------------|  ---------------------|


GtrI& II
|-----------------------------------------------------------------------|
|-----------------------------------------------------------------------|
|-777777777--9999999999-------------------------------------------------|
|-777777777--9999999999-------------------------------------------------|
|-555555555--7777777777-------------------------------------------------|
|-----------------------------------------------------------------------|

Repeat Chorus
GtrI
|-----------------------------------------------------------------------|
|-----------------------------------------------------------------------|
|--7-7-7---------7-7-7--------------------------------------------------|
|--7-7-7--7-7-7--7-7-7--7-7-7----7-7-7-7-7--22--7-7-777-----------------|
|--5-5-5--7-7-7--5-5-5--7-7-7----7-7-7-7-7--22--7-7-777-----------------|
|---------5-5-5---------5-5-5----5-5-5-5-5--00--5-5-555-----------------|
GtrI& II
|----------5----------------5-----|------------------------------------|
|-5-/7-7-7---5-5---5-/7-7-7---5-5-|------------------------------------|
|---------------------------------|-2-22-222-4h5p4-22-222--------------|
|---------------------------------|------------------------------------|
|---------------------------------|------------------------------------|
|---------------------------------|------------------------------------|

Outro-
|-------------------------| ----------------------------------------------|
|-------------------------| ----------------------------------------------|
|-------------------------| ----------------------------------------------|
|-7-7-7-7-7--22--7-7-777--|2x 7-7-7-7-7--22--7----7-----------------------|
|-7-7-7-7-7--22--7-7-777--| --7-7-7-7-7--22--7----7-----------------------|
|-5-5-5-5-5--00--5-5-555--| --5-5-5-5-5--00--5----5-----------------------|

|-------------------------| ----------------------------------------------|
|-------------------------| ----------------------10----------------------|
|-2-22-222-4h5p4-22-222---| --2-22-222-4h5p4-2----------------------------|
|-------------------------|2x --------------------------------------------|
|-------------------------| ----------------------------------------------|

	
|---------------------------------------------------------------------------------|
|---------------------------------------------------------------------------------|


The King Of Wishful Thinking Tab by New Found Glory, www.Ultimate-Guitar.Com
note-
Tuning Drop D

'King of wishful thinking'

Intro-
1.
GtrI
|------------------------------------------------------------------|
|------------------------------------------------------------------|
|-9-9-9-99-5-5-5-5/7-7-7-77--5-55--9-9-9-99-5-5-5-5/7-7-7-77--5-55-|
|-x-x-x-xx-x-x-x-x-x-x-x-xx--x-xx--x-x-x-xx-x-x-x-x-x-x-x-xx--x-xx-|
|-7-7-7-77-3-3-3-3/5-5-5-55--3-33--7-7-7-77-3-3-3-3/5-5-5-55--3-33-|
|------------------------------------------------------------------|
2.

GtrI
|------------------------------------------------------------------|
|------------------------------------------------------------------|
|-9-9-9-99-5-5-5-5/7-7-7-77--5-55--9-9-9-99-5-5-5-5/7-7-7-77--5-55-|
|-x-x-x-xx-x-x-x-x-x-x-x-xx--x-xx--x-x-x-xx-x-x-x-x-x-x-x-xx--x-xx-|
|-7-7-7-77-3-3-3-3/5-5-5-55--3-33--7-7-7-77-3-3-3-3/5-5-5-55--3-33-|
|------------------------------------------------------------------|

GtrII
|------------------------------------------------------------------|
|------------------------------------------------------------------|
|-------------------x5~-55------------------------x5~---55---------|
|-7---2-3--3-5-x5---x5~-55------7---2-3--3-5-x5---x5~---55---------|
|-7---2-3--3-5-x5---x3~-33------7---2-3--3-5-x5---x3~---33---------|
|-7---2-3--3-5-x5---------------7---2-3--3-5-x5--------------------|

Verse-

GtrI& II
|------------------------------------------------------------------|
|------------------------------------------------------------------|
|-------------------x5~-55------------------------x5~---55---------|
|-7---2-3--3-5-x5---x5~-55------7---2-3--3-5-x5---x5~---55---------|
|-7---2-3--3-5-x5---x3~-33------7---2-3--3-5-x5---x3~---33---------|
|-7---2-3--3-5-x5---------------7---2-3--3-5-x5--------------------|

Refrain-

GtrI
|------------------------------------------------------------------|
|------------------------------------------------------------------|
|-77777777-1010101010101010--77777777-10-10--12--------------------|
|-xxxxxxxx-x-x-x-x-x-x-x-x---xxxxxxxx-x--x---x---------------------|
|-55555555-8-8-8-8-8-8-8-8---55555555-8--8---10--------------------|
|------------------------------------------------------------------|

GtrII
|------------------------------------------------------------------|
|------------------------------------------------------------------|
|--77777777------------77777777------------------------------------|
|--77777777-333333333--77777777--3-3--5~---------------------------|
|--55555555-333333333--55555555--3-3--5~---------------------------|
|-----------333333333------------3-3--5~---------------------------|

Chorus-
|------------------------------------------------------------------|
|------------------------------------------------------------------|
|-5-5-----------------5-5-----------------5-5----------------------|
|-5-5--33--5-5--7-77--5-5--33--5-5--7-77--5-5--33--5-5--7-77-------|
|-3-3--33--5-5--7-77--3-3--33--5-5--7-77--3-3--33--5-5--7-77-------|
|------33--5-5--7-77-------33--5-5--7-77-------33--5-5--7-77-------|


|------------------------------------------------------------------|
|------------------------------------------------------------------|
|------------------------------------------------------------------|
|-3-3-3-3-3-3-3-3-3-3-3-3-3-3-3------------------------------------|
|-3-3-3-3-3-3-3-3-3-3-3-3-3-3-3------------------------------------|
|-3-3-3-3-3-3-3-3-3-3-3-3-3-3-3------------------------------------|
  * * * * * * * * * * * *   

Continued..
GtrI
|------------------------------------------------------------------|
|------------------------------------------------------------------|
|-9-9-9-99-5-5-5-5/7-7-7-77--5-55--9-9-9-99-5-5-5-5/7-7-7-77--5-55-|
|-x-x-x-xx-x-x-x-x-x-x-x-xx--x-xx--x-x-x-xx-x-x-x-x-x-x-x-xx--x-xx-|
|-7-7-7-77-3-3-3-3/5-5-5-55--3-33--7-7-7-77-3-3-3-3/5-5-5-55--3-33-|
|------------------------------------------------------------------|

GtrII
|------------------------------------------------------------------|
|------------------------------------------------------------------|
|-------------------x5~-55------------------------x5~---55---------|
|-7---2-3--3-5-x5---x5~-55------7---2-3--3-5-x5---x5~---55---------|
|-7---2-3--3-5-x5---x3~-33------7---2-3--3-5-x5---x3~---33---------|
|-7---2-3--3-5-x5---------------7---2-3--3-5-x5--------------------|

verse2-


Verse-
1.
GtrI& II
|------------------------------------------------------------------|
|------------------------------------------------------------------|
|-------------------x5~-55------------------------x5~---55---------|
|-7---2-3--3-5-x5---x5~-55------7---2-3--3-5-x5---x5~---55---------|
|-7---2-3--3-5-x5---x3~-33------7---2-3--3-5-x5---x3~---33---------|
|-7---2-3--3-5-x5---------------7---2-3--3-5-x5--------------------|

2.
GtrI
|------------------------------------------------------------------|
|------------------------------------------------------------------|
|-9-9-9-99-5-5-5-5/7-7-7-77--5-55--9-9-9-99-5-5-5-5/7-7-7-77--5-55-|
|-x-x-x-xx-x-x-x-x-x-x-x-xx--x-xx--x-x-x-xx-x-x-x-x-x-x-x-xx--x-xx-|
|-7-7-7-77-3-3-3-3/5-5-5-55--3-33--7-7-7-77-3-3-3-3/5-5-5-55--3-33-|
|------------------------------------------------------------------|

GtrII
|------------------------------------------------------------------|
|------------------------------------------------------------------|
|-------------------x5~-55------------------------x5~---55---------|
|-7---2-3--3-5-x5---x5~-55------7---2-3--3-5-x5---x5~---55---------|
|-7---2-3--3-5-x5---x3~-33------7---2-3--3-5-x5---x3~---33---------|
|-7---2-3--3-5-x5---------------7---2-3--3-5-x5--------------------|

REpeat Refrain chorus...
Interlude-
GtrI
|------------------------------------------------------------------|
|------------------------------------------------------------------|
|------------------------------------------------------------------|
|---------2------------------2-------------------------------------|
|-----3h5----------------3h5-------------------3h5--33-------------|
|-7h9--------7--7--5--7h9--------7--7--5---7h9---------------------|

GtrII
|------------------------------------------------------------------|
|------------------------------------------------------------------|
|------------------------------------------------------------------|
|------------7--7--5-------------7--7--5---------------------------|
|------------7--7--5-------------7--7--5---------------------------|
|------------7--7--5-------------7--7--5---------------------------|

Repeat refrain

Bridge Chorus-
rhythm(-C F G  Am 3x )

then

|------------------------------------------------------------------|
|------------------------------------------------------------------|
|------------------------------------------------------------------|
|-3-3-3-3-3-3-3-3-0-0-0-0-0-0-0-0-3-3-3-3-3-3-3-3-0-0-0-0-0-0-0-0--|
|-3-3-3-3-3-3-3-3-0-0-0-0-0-0-0-0-3-3-3-3-3-3-3-3-0-0-0-0-0-0-0-0--|
|-3-3-3-3-3-3-3-3-0-0-0-0-0-0-0-0-3-3-3-3-3-3-3-3-0-0-0-0-0-0-0-0--|
  * * * * * * * * * * * * * * * * * * * * * * * * * * * * * * * * 

|---------------------------------------------------------------------------------|
|---------------------------------------------------------------------------------|


The Promise Tab by New Found Glory, www.Ultimate-Guitar.Com

GtrI  ( e b g d A E )- dist

GtrII ( e b g d A E )- dist

Intro-

Piano
|-------------------|---------------------|------------------|---------------------|
|------6--5--ó--5~~-|-----6-5-----5~------|------6-5---------|-----6-5----5~----8~-|
|-5-7--------7------|-5-7------7-----5~---|-5-7-------7------|-5h7------7----5~----|
|-------------------|---------------------|------------------|---------------------|
|-------------------|------------(0)------|--------------8~~-|---------------------|
|-------------------|---------------------|------------------|---------------------|

1.

GtrI 
|------------------------------------------------------------------------|
|------------------------------------------------------------------------|
|-5---5----5-----5-----5-----5-----5/------------------------------------|
|-5-5-5-5--5--5--5--5--5--5--5--5--5/------------------------------------|
|-3-5-3-5--3--5--3--5--3--5--3--5--3/------------------------------------|
|---3---3-----3-----3-----3-----3----------------------------------------|
Gtr II
|-----------------------------------------------------------------------|
|-----------------------------------------------------------------------|
|-5-5-5-5--5--5--5--5--5--5--5--5--5------------------------------------|
|-x-x-x-x--x--x--x--x--x--x--x--x--x------------------------------------|
|-3-3-3-3--3--3--3--3--3--3--3--3--3------------------------------------|
|-----------------------------------------------------------------------|

Verse-
GtrI& II
|-----------------------------------------------------------------------|
|-----------------------------------------------------------------------|
|-55555555555555----------------------------------5555555555555555------|
|-55555555555555-777777777777777--333333333333333-5555555555555555------|2x
|-33333333333333-777777777777777--333333333333333-3333333333333333------|
|----------------555555555555555--111111111111111-----------------------|

Pre-
GtrI & II
|-----------------------------------------------------------------------|
|-----------------------------------------------------------------------|
|-5-xxxx-5-xxxx-5-------------------------------------------------------|
|-5-xxxx-5-xxxx-5-------------------------------------------------------|
|-3-xxxx-3-xxxx-3-------------------------------------------------------|
|-----------------------------------------------------------------------|

Chorus-
GtrI & II
|-----------------------------------------------------------------------|
|-----------------------------------------------------------------------|
|--555555555555-----------------------------55555555555-----------------|
|--555555555555-777777777777-3333333333333--555555555555--7-xxx-5-------|2x
|--333333333333-777777777777-3333333333333--333333333333--7-xxx-5-------|
|---------------555555555555-1111111111111----------------5-xxx-3-------|


Repeat Intro,Verse,Pre,Chorus.
Interlude-
GtrII 
|-----------------------------------------------------------------------|
|-----------------------------------------------5-----------------------|
|----5-4~--5-----7-5-4~--5--------5~--4-5~----5--7--5-------------------|
|--5---------5~------------5----5---------------------5~----------------|
|-----------------------------------------------------------------------|
|-----------------------------------------------------------------------|


|-----------------------------------------------------------------------|
|------5--8-6-5--------------5--8-6-5-----------------------------------|
|----5---------------------5---------------------5----------------------|
|--5------------5-7~-----5------------5--7~------5----------------------|
|------------------------------------------------3----------------------|
|-----------------------------------------------------------------------|
   * *                   * *
Repeat Chorus-

Last Chorus-

GtrI & II
|-----------------------------------------------------------------------|
|-----------------------------------------------------------------------|
|--5-5-5-5-5-5-5-----------------------------5-5-5-5-5-5----------------|
|--5-5-5-5-5-5-5-7-7-7-7-7-7-7-3-3-3-3-3-3-3-5-5-5-5-5-5--7-xxx-5-------|2x
|--3-3-3-3-3-3-3-7-7-7-7-7-7-7-3-3-3-3-3-3-3-3-3-3-3-3-3--7-xxx-5-------|
|----------------5-5-5-5-5-5-5-1-1-1-1-1-1-1--------------5-xxx-3-------|


GtrI & II
|-----------------------------------------------------------------------|
|-----------------------------------------------------------------------|
|---------------------------------------------------5~------------------|
|-7-7-7-7-7-7-7-7-7-7--3-3-3-3-3-3-3-3-3-3-3-3------5~------------------|end
|-7-7-7-7-7-7-7-7-7-7--3-3-3-3-3-3-3-3-3-3-3-3------3~------------------|
|-5-5-5-5-5-5-5-5-5-5--1-1-1-1-1-1-1-1-1-1-1-1--------------------------|


|---------------------------------------------------------------------------------|
|---------------------------------------------------------------------------------|
Stay Tab by New Found Glory, www.Ultimate-Guitar.Com

new found glory-stay
this 100% correct!..enjoy...

GtrI-( e b g d A D)

GtrII-( e b g d A D)

Intro-
Verse-
GtrI 

|-------------------------------------------------------------|
|-------------------------------------------------------------|
|-66-6~--33-3~------------------------------------------------|
|-66-6~--33-3~-111111111-3333333-44444444-444~----------------|2x
|-44-4~--11-1~-111111111-3333333-44444444-444~----------------|
|--------------111111111-3333333-44444444-444~----------------|
  **     **    ********* ******* ********  *    

GtrII
GtrII
|----11~------6-----------------------------------------------|
|--14-----9---------------------------------------------------|
|13-----xx--8-------------------------------------------------|
|---------------11-11-33-33-444-4-4-4~------------------------|2x
|---------------11-11-33-33-444-4-4-4~------------------------|
|---------------11-11-33-33-444-4-4-4~------------------------|     
                ** ** ** ** ***   * 
                    
 GtrI &II             
|---------------   ----------------------------------------------|
|---------------   ----------------------------------------------|
|-88-x8-x6-6----   -------------------88-x8-x6-6--88-x8-x6-6-----|
|-88-x8-x6-6----3x -4-444-44-44-4-----88-x8-x6-6--88-x8-x6-6-----|
|-66-x6-x4-4----   -4-444-44-44-4-----66-x6-x4-4--66-x6-x4-4-----|
|---------------   -4-444-44-44-4--------------------------------|


Verse
 GtrI &II  
|-------------------------------------------------------------|
|-------------------------------------------------------------|
|-66-6~--33-3~------------------------------------------------|
|-66-6~--33-3~-111111111-3333333-444444444444444444-----------|
|-44-4~--11-1~-111111111-3333333-444444444444444444-----------|
|--------------111111111-3333333-444444444444444444-----------|
  **     **    ********* ******* ******************   

 GtrI &II  
|-------------------------------------------------------------|
|-------------------------------------------------------------|
|-------------------------------------------------------------|
|--111111111-3333333-444444444444444444~----------------------|
|--111111111-3333333-444444444444444444~----------------------|
|--111111111-3333333-444444444444444444~----------------------|
     
 GtrI &II  
|-------------------------------------------------------------|
|-------------------------------------------------------------|
|--88-x8-x6-6--88-x8-x6-6-----88-x8-x6-6--88-x8-x6-6----------|
|--88-x8-x6-6--88-x8-x6-6-----88-x8-x6-6--88-x8-x6-6----------|2x
|--66-x6-x4-4--66-x6-x4-4-----66-x6-x4-4--66-x6-x4-4----------|
|-------------------------------------------------------------|


 GtrI &II  
|-------------------------------------------------------------|
|-------------------------------------------------------------|
|-------------------------------------------------------------|
|-11111111111111-33333333333--11-11-33--33-444-4-4-4----------|
|-11111111111111-33333333333--11-11-33--33-444-4-4-4----------|
|-11111111111111-33333333333--11-11-33--33-444-4-4-4----------|
                              ** ** **  ** ***   *

 GtrI &II  
|-------------------------------------------------------------|
|-------------------------------------------------------------|
|--88-x8-x6-6--88-x8-x6-6-----88-x8-x6-6----------------------|
|--88-x8-x6-6--88-x8-x6-6-----88-x8-x6-6-4-4-4-4-4-4-4444444--|
|--66-x6-x4-4--66-x6-x4-4-----66-x6-x4-4-4-4-4-4-4-4-4444444--|
|----------------------------------------4-4-4-4-4-4-4444444--|


 GtrI &II  
|-------------------------------------------------------------|
|-------------------------------------------------------------|
|--88-x8-x6-6--88-x8-x6-6-------------------------------------|
|--88-x8-x6-6--88-x8-x6-6-------------------------------------|
|--66-x6-x4-4--66-x6-x4-4-------------------------------------|
|-------------------------------------------------------------|



|-------------------------------------------------------------|
|-------------------------------------------------------------|
|-------------------------------------------------------------|
|-11111111111111-33333333333--11-11-33--33-444-4-4-4----------|
|-11111111111111-33333333333--11-11-33--33-444-4-4-4----------|
|-11111111111111-33333333333--11-11-33--33-444-4-4-4----------|
                              ** ** **  ** ***   *


|-----------------------------------------------------|
|-----------------------------------------------------|
|-66-6~--33-3~----------------------------------------|2x
|-66-6~--33-3~-11-11-33-33-444-4-4-4~-----------------|
|-44-4~--11-1~-11-11-33-33-444-4-4-4~-----------------|
|--------------11-11-33-33-444-4-4-4~-----------------|
  **     **    ** ** ** ** ***   * 


GtrII
|----11~------6-----------------------------------------------|
|--14-----9---------------------------------------------------|
|13-----xx--8-------------------------------------------------|
|---------------11-11-33-33-444-4-4-4~------------------------|2x
|---------------11-11-33-33-444-4-4-4~------------------------|
|---------------11-11-33-33-444-4-4-4~------------------------|     
                ** ** ** ** ***   *
End


|---------------------------------------------------------------------------------|
|---------------------------------------------------------------------------------|
Lovefool Tab by New Found Glory, www.Ultimate-Guitar.Com
note-


Tuning- GtrI & II( e b g d A E }

Intro-

|-9--9----9--9------9---9------------------------------|
|-10-10---10-10-----10--10-----------------------------|
|-11-11---11-11-----11--11-----------------------------|
|------------------------------------------------------|
|------------------------------------------------------|
|------------------------------------------------------|


Verse

GtrI
|--9--9---|--7-7--|--7--7--|--5--5----|
|--10-10--|--7-7--|--9--9--|--5--5----|
|--11-11--|--7-7--|--9--9--|--6--6----|
|--x--x---|--x-x--|--x--x--|--x--x----|4x
|---------|-------|--------|----------|
|---------|-------|--------|----------|

Gtr II
|------------------------------------------------------|
|------------------------------------------------------|
|------------------------------------------------------|
|--------77-999999--------66-777777--------------------|2x
|-999999-----------777777------------------------------|
|------------------------------------------------------|



Pre Chorus-
[ Tab from: http://www.guitaretab.com/n/new-found-glory/98271.html ]
|------------------------------------------------------|
|------------------------------------------------------|
|------------------------------------------------------|
|-77-7--7-8--8-9--9-10--10-111111111111111111----------|
|-77-7--7-8--8-9--9-10--10-111111111111111111----------|
|-55-5--5-6--6-7--7-8---8--9-9-9-9-9-9-9-9-9-----------|


ChorusI-
Gtr I
|-----------------|  ----------------------------------------------------|
|-----------------|  ----------------------------------------------------|
|----44-----6-66--|  --------------------------6~------------------------|
|-44-44-66--6-66--|4x-4~----------6------------6~-------------4~-4444444-|
|-44-22-66--4-44--|  -4~----------6~-----------4~-------------4~-4444444-|
|-22----44--------|  -2~----------4~--------------------------2~-2222222-|

Gtr II
|-----------------|  ----------------------------------------------------|
|-----------------|  ----------------------------------------------------|
|-----------------|  ----------------------------------------------------|
|-same as above---|  -11-8~-11-8~-11-8~-11-8------9-----9---9-8--9-8-----|
|-----------------|  ------------------------11~-----11---11--------9~---|
|-----------------|  ----------------------------------------------------|


Gtr I&II
|----------------|  ------------|
|----------------|  ------------|
|----4~----6-66--|  -----4~--6~-|
|-44-4~-66-6-66--|2x-4~--4~--6~-|
|-44-2~-66-4-44--|  -4~--2~--4~-|
|-22----44-------|  -2~---------|

Repeat Intro- Verse! w/o Gtr II ! w/ Gtr II- Chorus-



Outro-
Gtr I&II
|----------------|  ------------|
|----------------|  ------------|
|----4~----6-66~-|  -----4~--6~-|
|-44-4~-66-6-66~-|5x-4~--4~--6~-|
|-44-2~-66-4-44~-|  -4~--2~--4~-|
|-22----44-------|  -2~---------|

End W/

|------------------------------------------------------|
|------------------------------------------------------|
|------------------------------------------------------|
|-4-4---4-4--4-4~--------------------------------------|
|-4-4---4-4--4-4~--------------------------------------|
|-2-2---2-2--2-2~--------------------------------------|

|---------------------------------------------------------------------------------|
|---------------------------------------------------------------------------------|
 
Iris Tab by New Found Glory, www.Ultimate-Guitar.Com
new found glory-iris
this 100% correct!..enjoy...

GtrI-( e b g d A E)

GtrII-( e b g d A E)

Intro-
GtrI

|-------------------------------------------------------------|
|-------------------------------------------------------------|
|-------------------------------------------------------------|2x
|-999999-77777-7777---5555555-5555555-5555--------------------|
|-999999-77777-7777---5555555-5555555-5555--------------------|
|-777777-55555-5555---3333333-3333333-3333--------------------|



GtrII
|-------------------------------------------------------------|
|-------------------------------------------------------------|
|-777777-66666-6/7-7--1212121212-111111111--7777--------------|
|-xxxxxx-xxxxx-x-x-x--x-x-x-x-x--x-x-x-x-x--xxxx--------------|2x
|-555555-44444-4/5-5--1010101010-9-9-9-9-9--5555--------------|
|-------------------------------------------------------------|

Verse-
GtrI
|-x-xxx-x-xxx-x-xxx-xxx-   ---x-xxx-x-xxx-x-xxx-xxx-----------|
|-3-333-3-333-3-333-333-   ---3-333-3-333-3-333-333-----------|
|-2-222-2-222-2-222-222-   ---2-222-2-222-2-222-222-----------|
|-0-000-x-xxx-x-xxx-xxx-3x ---x-xxx-x-xxx-x-xxx-xxx-----------|
|-------0-000-x-xxx-xxx-   ---2-222-0-000-x-xxx-xxx-----------|
|-------------3-333-333-   ---------------3-333-333-----------|

2.
GtrI
|-x-xxx-x-xxx-x-xxx-xxx-   
|-3-333-3-333-3-333-333-   
|-2-222-2-222-2-222-222-   
|-0-000-x-xxx-x-xxx-xxx-3x 
|-------0-000-x-xxx-xxx-   
|-------------3-333-333-   


GtrI& II
|-----------------------------------------------------------|
|-----------------------------------------------------------|
|-----------------------------------------------------------|
|-9-99-99-777777-5555555555---------------------------------|
|-9-99-99-777777-5555555555---------------------------------|
|-7-77-77-555555-3333333333---------------------------------|
    **     ***    *********

Chorus-
GtrI& II
|-------------------------------------------------------------|
|-------------------------------------------------------------|
|-------------------------------------------------------------|
|--9-9-9-9--7-7-7-7--5-5-5-5---9-9-9-9--7-7-7-7--5-5-5-5------|2x
|--9-9-9-9--7-7-7-7--5-5-5-5---9-9-9-9--7-7-7-7--5-5-5-5------|
|--7-7-7-7--5-5-5-5--3-3-3-3---7-7-7-7--5-5-5-5--3-3-3-3------|


Repeat Intro-Verse2.-Chorus


Solo-
GtrI
|-------------------------------------------------------------|
|-------------------------------------------------------------|
|-------------------------------------------------------------|
|--9999-7777-7-7--555555-555555--555-5------------------------|
|--9999-7777-7-7--555555-555555--555-5------------------------|
|--7777-5555-5-5--333333-333333--333-3------------------------|
   ***  ***


|-------------------------------------------------------------|
|-------------------------------------------------------------|
|-------------------------------------------------------------|
|--9999-7777-7-7--555555-555555--555-5------------------------|
|--9999-7777-7-7--555555-555555--555-5------------------------|
|--7777-5555-5-5--333333-333333--333-3------------------------|
   ***  ***

|-------------------------------------------------------------|
|-------------------------------------------------------------|
|-------------------------------------------------------------|
|--9999-7777-7-7----------------------------------------------|
|--9999-7777-7-7----------------------------------------------|
|--7777-5555-5-5----------------------------------------------|


|-------------------------------------------------------------|
|-------------------------------------------------------------|
|-------------------------------------------------------------|
|-5555555-44444444-5555555555-999999999-----------------------|
|-5555555-44444444-5555555555-999999999-----------------------|
|-3333333-22222222-3333333333-777777777-----------------------|

|-------------------------------------------------------------|
|-------------------------------------------------------------|
|-------------------------------------------------7~----------|
|--555555555-444444444-99999999-9999999999--------7~----------|
|--555555555-444444444-99999999-9999999999--------5~----------|
|--333333333-222222222-77777777-7777777777--------------------|


GtrII
|-------------------------------------------------------------|
|-------------------------------------------------------------|
|-7777-6666--6-7-1212121212--1111111111-1212-7----------------|
|-xxxx-xxxx--x-x-x-x-x-x-x---x-x-x-x-x--x-x--x----------------|
|-5555-4444--4-5-1010101010--9-9-9-9-9--1010-5----------------|
|-------------------------------------------------------------|


|-------------------------------------------------------------|
|-------------------------------------------------------------|
|-7777-6666--6-7-1212121212--1111111111-1212-7----------------|
|-xxxx-xxxx--x-x-x-x-x-x-x---x-x-x-x-x--x-x--x----------------|
|-5555-4444--4-5-1010101010--9-9-9-9-9--1010-5----------------|
|-------------------------------------------------------------|
  ***


|-------------------------------------------------------------|
|-------------------------------------------------------------|
|-9999-14141414--2~-/7~~~--/6~--2~-/7~~~--/9~--/11~~~---------|
|-xxxx-x-x-x-x------------------------------------------------|
|-7777-12121212-----------------------------------------------|
|-------------------------------------------------------------|


|-------------------------------------------------------------|
|-------------------------------------------------------------|
|-2~-/7~~~--/11~/6~~~--/2\4~~~-----/-16~~~~~~~~~~~~~~---------|
|-------------------------------------------------------------|
|-------------------------------------------------------------|
|-------------------------------------------------------------|


((silence))Dist off

piano
|----17----------17-------------------------------------------|
|-15----15-14--15---------------------------------------------|
|-------------------------------------------------------------|
|-------------------------------------------------------------|
|-------------------------------------------------------------|
|-------------------------------------------------------------|


dist on!
GtrI& II
|--~-----------------------------------------------------------|
|--~-----------------------------------------------------------|
|--~-----------------------------------------------------------|
|--~-----------------------------------------------------------|
|--~-----------------------------------------------------------|
|--~-----------------------------------------------------------|

Chorus-

GtrI& II
|-------------------------------------------------------------|
|-------------------------------------------------------------|
|-------------------------------------------------------------|
|--9-9-9-9--7-7-7-7--5-5-5-5---9-9-9-9--7-7-7-7--5-5-5-5------|2x
|--9-9-9-9--7-7-7-7--5-5-5-5---9-9-9-9--7-7-7-7--5-5-5-5------|
|--7-7-7-7--5-5-5-5--3-3-3-3---7-7-7-7--5-5-5-5--3-3-3-3------|


|-------------------------------------------------------------|
|-------------------------------------------------------------|
|-------------------------------------------------------------|
|--99--77--555-5-55--55-----99--77--555-5-55--55--------------|
|--99--77--555-5-55--55-----99--77--555-5-55--55--------------|
|--77--55--333-3-33--33-----77--55--333-3-33--33--------------|
           ***   *   *              ***   *   *


|-------------------------------------------------------------|
|-------------------------------------------------------------|
|-------------------------------------------------------------|
|--99--77--555-5-55--55-----99--77--5~~~~~~~~~~~--------------|
|--99--77--555-5-55--55-----99--77--5~~~~~~~~~~~--------------|
|--77--55--333-3-33--33-----77--55--3~~~~~~~~~~~--------------|
           ***   *   *     

         
|---------------------------------------------------------------------------------|
|---------------------------------------------------------------------------------|
Donít you forget  About me  by New Found Glory, www.Ultimate-Guitar.Com


Tuning- GtrI ( e b g d A E }

Intro-


|------------------------------------------------------|
|------------------------------------------------------|
|------------------------------------------------------|
|--5--7~-7777777777--5-10~-3--5~-555-------------------|2x
|--3--5~-5555555555--3-8~--1--3~-333-------------------|
|------------------------------------------------------|


Verse-

1.
|------------------------------------------------------|
|------------------------------------------------------|
|-7~~~~~~~~~~~~~~~~~~~~~~~~~~~~~~~~~-------------------|
|-7~~~~~~~~~~~~~~~~~~~~~~~~~~~~~~~~~-------------------|
|-5~~~~~~~~~~~~~~~~~~~~~~~~~~~~~~~~~-------------------|
|------------------------------------------------------|


2.
|------------------------------------------------------|
|------------------------------------------------------|
|-7~~~~~~~~~~~~~~~~~~~~~~~~~~~~~~~~~-------------------|
|-7~~~~~~~~~~~~~~~~~~~~~~~~~~~~~~~~~-------------------|
|-5~~~~~~~~~~~~~~~~~~~~~~~~~~~~~~~~~-------------------|
|------------------------------------------------------|


3.
|------------------------------------------------------|
|------------------------------------------------------|
|-777777-77-555555-55--------55--777777-77-------------|
|-777777-77-555555-55-555555-55--777777-77-------------|
|-555555-55-333333-33-555555-55--555555-55-------------|
|---------------------333333-33------------------------|
  ******    ******    ******     ******

4.
|------------------------------------------------------|
|------------------------------------------------------|
|-777777-77-555555-55-------------77777777-------------|
|-777777-77-555555-55-5555555555--77777777-------------|
|-555555-55-333333-33-5555555555--55555555-------------|
|---------------------3333333333-----------------------|
  ******    ******

Chorus-

|------------------------------------------------------|
|------------------------------------------------------|
|-7--7~---5--5~-----------7777-777---------------------|2x
|-7--7~---5--5~-5--5~-----7777-777---------------------|
|-5--5~---3--3~-5--5~-----5555-555---------------------|
|---------------3--3~----------------------------------|
                          ****

Verse-
1.
|---------------------------------------------------------------------------------|
|---------------------------------------------------------------------------------|
|---------------------------------------------------------------------------------|
|-3333333333333333333---------------------5555555555555555555---------------------|
|-1111111111111111111-3333333333333333333-3333333333333333333-5555555555555555555-|
|---------------------1111111111111111111---------------------3333333333333333333-|
  ******************* ******************* ******************* ******************

2.
|-------------------------------------------------------------------------------|
|-------------------------------------------------------------------------------|
|-33-333333-33-3333333-----------------------55-555555-55-5555555---------------|
|-11-111111-11-1111111-33-333333-33-3333333--33-333333-33-3333333-5555555555555-|
|----------------------11-111111-11-1111111-----------------------3333333333333-|
  ** ****** ** ******* ** ****** ** *******  ** ****** ** ******* *********


Repeat Intro-Verse-Chorus3x-

Bridge-
1.
|--------------------------------------------|
|--------------------------------------------|
|---7~---/--5~--------/--7~------------------|2x
|---7~---/--5~-/--5~--/--7~------------------|
|---5~---/--3~-/--5~--/--5~------------------|
|--------------/--3~-------------------------|
                          

2.
|------------------------------------------------------|
|------------------------------------------------------|
|-7~~~~~~~~~~~~~~~~~~~~~~~~~~~~~~~~~-------------------|
|-7~~~~~~~~~~~~~~~~~~~~~~~~~~~~~~~~~-------------------|
|-5~~~~~~~~~~~~~~~~~~~~~~~~~~~~~~~~~-------------------|
|------------------------------------------------------|

3.
Or will you...
|------------------------------------------------|
|------------------------------------------------|
|-7777777--5555555-----------7777777-------------|
|-7777777--5555555--5555555--7777777-------------|2x
|-5555555--3333333--5555555--5555555-------------|
|-------------------3333333----------------------|
  ******   *******  *******  *******

Outro-

la..lalala..lalala..
|------------------------------------------------|
|------------------------------------------------|
|-7777777--5555555-----------7777777-------------|
|-7777777--5555555--5555555--7777777-------------|4x
|-5555555--3333333--5555555--5555555-------------|
|-------------------3333333----------------------|

GtrII(trm)enters
|------------------------------------------------|
|-13-12----12--13-12----12-13-12----12-13-12-----|
|-------12-----------12----------12--------------|
|------------------------------------------------|
|------------------------------------------------|
|------------------------------------------------|
end-


|-----------------------------------------------|
|-----------------------------------------------|
|-5-7~~~~~~~~~~~~~~~~~~~~~~~~-------------------|
|-5-7~~~~~~~~~~~~~~~~~~~~~~~~-------------------|
|-3-5~~~~~~~~~~~~~~~~~~~~~~~~-------------------|
|-----------------------------------------------|

|---------------------------------------------------------------------------------|
|---------------------------------------------------------------------------------|
Jy Suis Jamais Alle Tab by New Found Glory, www.Ultimate-Guitar.Com
Note- 

E5 A5 & B5 are chords for GtrII

Tuning- standard ( e bg d A E )

Intro-

GtrI-

  E5                          E5
|---------------------------|------------------------------|
|-8~-7-8~-7-10~-8h10p8p8-7~-|-8~--7-8~--7-10~--8h10p8p8-7~-|2x
|---------------------------|------------------------------|
|---------------------------|------------------------------|
|---------------------------|------------------------------|
|---------------------------|------------------------------|





I.
  E5                     A5                B5
|--------------------------------------------------------|
|-----------------------10--10-10---8-10---7-------------|
|-9--99-77--9--99--7-9-----------------------------------|
|--------------------------------------------------------|
|--------------------------------------------------------|
|--------------------------------------------------------|



  E5                                          A5              B5
|---------------|-----------------|--------------|----------------|
|-7-7----7-8----|--8-8--7-7--8----|-8-8--7-7--10-|-10-10-8-10-7---|
|-----9---------|-----------------|--------------|----------------|
|---------------|-----------------|--------------|----------------|
|---------------|-----------------|--------------|----------------|
|---------------|-----------------|--------------|----------------|

  E5                                          A5              B5
|-------------7-|-7-7---------7---|-7-7------7-8-|-8-8-7h8p7------|
|-7-7-8--10-8---|-----10-10-------|----10-10-----|------------10--|
|---------------|-----------------|--------------|----------------|
|---------------|-----------------|--------------|----------------|
|---------------|-----------------|--------------|----------------|
|---------------|-----------------|--------------|----------------|


  E5                                            A5              B5
|--------------7-|-7-7---------7---|-7-7------7-8-|-8-8-7h8p7------|
|-10-10-8-10-8---|-----10-10-------|----10-10-----|------------10~-|
|----------------|-----------------|--------------|----------------|
|----------------|-----------------|--------------|----------------|
|----------------|-----------------|--------------|----------------|
|----------------|-----------------|--------------|----------------|


II
  
  E5              A5               B5                    B5  
|-7--7-8--8--7~-|----7--8-8-10-8~-|-7-8--10-10--12-10~-|-7~---10~---7~--|
|---------------|-10--------------|--------------------|----------------|
|---------------|-----------------|--------------------|----------------|
|---------------|-----------------|--------------------|----------------|
|---------------|-----------------|--------------------|----------------|
|---------------|-----------------|--------------------|----------------|

  E5              A5               B5                    B5
|-7--7-8--8--7~-|----7--8-8-10-8~-|-7-8--10-10--12-10~-|-7~---10~---7~--|
|---------------|-10--------------|--------------------|----------------|
|---------------|-----------------|--------------------|----------------|
|---------------|-----------------|--------------------|----------------|
|---------------|-----------------|--------------------|----------------|
|---------------|-----------------|--------------------|----------------|

III.
  E5        E5       E5         E5          A5
|------9~-|------9~-|-------9~-|------9~--|------------------------------|
|-8-10----|-8-10----|--8-10----|-8-10-----|--7--8-10~--8-7-8-10~-8-------|
|---------|---------|----------|----------|------------------------------|
|---------|---------|----------|----------|------------------------------|
|---------|---------|----------|----------|------------------------------|
|---------|---------|----------|----------|------------------------------|


  E5                     A5                B5
|--------------------------------------------------------|
|-----------------------10--10-10---8-10---7-------------|
|-9--99-77--9--99--7-9-----------------------------------|
|--------------------------------------------------------|
|--------------------------------------------------------|
|--------------------------------------------------------|



  E5                                          A5              B5
|---------------|-----------------|--------------|----------------|
|-7-7----7-8----|--8-8--7-7--8----|-8-8--7-7--10-|-10-10-8-10-7---|
|-----9---------|-----------------|--------------|----------------|
|---------------|-----------------|--------------|----------------|
|---------------|-----------------|--------------|----------------|
|---------------|-----------------|--------------|----------------|

  E5                                          A5              B5
|-------------7-|-7-7---------7---|-7-7------7-8-|-8-8-7h8p7------|
|-7-7-8--10-8---|-----10-10-------|----10-10-----|------------10--|
|---------------|-----------------|--------------|----------------|
|---------------|-----------------|--------------|----------------|
|---------------|-----------------|--------------|----------------|
|---------------|-----------------|--------------|----------------|

  E5                                         A5             B5
|--------------7-|-7-7---------7---|-7-7------7-8-|-8-8-7h8p7----7-8------|
|-10-10-8-10-8---|-----10-10-------|----10-10-----|-----------10----10-12~|
|----------------|-----------------|--------------|-----------------------|
|----------------|-----------------|--------------|-----------------------|
|----------------|-----------------|--------------|-----------------------|
			
			


|---------------------------------------------------------------------------------|
|---------------------------------------------------------------------------------|
Crazy For You Tab by New Found Glory, www.Ultimate-Guitar.Com
Gtr12

Intro-
1.
Gtr1
|------------------------------------------------------------------------|
|------------------------------------------------------------------------|
|------------------------------------------------------------------------|
|-0~~~~~~~~~~~~~~~~~~~~~~~~~~~~~~~~~~~~~~~~~~~~~~~~~~~~~~~~~~~~~---------|
|-0~~~~~~~~~~~~~~~~~~~~~~~~~~~~~~~~~~~~~~~~~~~~~~~~~~~~~~~~~~~~~---------|
|-0~~~~~~~~~~~~~~~~~~~~~~~~~~~~~~~~~~~~~~~~~~~~~~~~~~~~~~~~~~~~~---------|

Gtr2
|------------------------------------------------------------------------|
|---10-10----10-10----10-10----10-10----10-10----10-10----10-10---10-10--|
|-7-------77-------77-------77------77--------77-------77------77--------|
|------------------------------------------------------------------------|
|------------------------------------------------------------------------|
|------------------------------------------------------------------------|

2.
Gtr1

|------------------------------------------------------------------------|
|-----------7-8--10~------8--7~------------------------------------------|
|-------------------------------9~---7~----------------------------------|
|-0~~~~~~~~~~~~~~~~~~~~~~~~~~~~~~~~~~~~~~~~~~~~~~~~~~~~~~~~~~~~~---------|
|-0~~~~~~~~~~~~~~~~~~~~~~~~~~~~~~~~~~~~~~~~~~~~~~~~~~~~~~~~~~~~~---------|
|-0~~~~~~~~~~~~~~~~~~~~~~~~~~~~~~~~~~~~~~~~~~~~~~~~~~~~~~~~~~~~~---------|


Gtr2

|------------------------------------------------------------------------|
|---10-10----10-10----10-10----10-10----10-10----10-10----10-10---10-10--|
|-7-------77-------77-------77------77--------77-------77------77--------|
|------------------------------------------------------------------------|
|------------------------------------------------------------------------|
|------------------------------------------------------------------------|


Verse-

1.Gtr1&2

|------------------------------------------------------------------------|
|------------------------------------------------------------------------|
|------------------------------------------------------------------------|
|-0~~~~~~~~~~~~~~~~~~~~~~~~~~~~~~~~~~~~~~~~~~~~~~~~~~~~~~~~~~~~~---------|
|-0~~~~~~~~~~~~~~~~~~~~~~~~~~~~~~~~~~~~~~~~~~~~~~~~~~~~~~~~~~~~~---------|
|-0~~~~~~~~~~~~~~~~~~~~~~~~~~~~~~~~~~~~~~~~~~~~~~~~~~~~~~~~~~~~~---------|


|------------------------------------------------------------------------|
|------------------------------------------------------------------------|
|------------------------------------------------------------------------|
|--5--7~~~---------------------------------------------------------------|
|--5--7~~~---------------------------------------------------------------|
|--5--7~~~---------------------------------------------------------------|


2.
Gtr1

|------------------------------------------------------------------------|
|------------------------------------------------------------------------|
|------------------------------------------------------------------------|
|-0~~~~~~~~5~-7~~~~~0~~~~~~5~--7~~~~~~~~~0~~~~~~5~--7~~~~~~~~------------|
|-0~~~~~~~~5~-7~~~~~0~~~~~~5~--7~~~~~~~~~0~~~~~~5~--7~~~~~~~~------------|
|-0~~~~~~~~5~-7~~~~~0~~~~~~5~--7~~~~~~~~~0~~~~~~5~--7~~~~~~~~------------|
Gtr2

|------------------------------------------------------------------------|
|---10-10----10-10----10-10----10-10----10-10----10-10----10-10---10-10--|
|-7-------77-------77-------77------77--------77-------77------77--------|
|------------------------------------------------------------------------|
|------------------------------------------------------------------------|
|------------------------------------------------------------------------|

3.
Gtr1

|------------------------------------------------------------------------|
|------------------------------------------------------------------------|
|------------------------------------------------------------------------|
|-99999999---55555--77---------------------------------------------------|
|-99999999---55555--77---------------------------------------------------|
|-99999999---55555--77---------------------------------------------------|

Gtr2

|------------------------------------------------------------------------|
|------------------------------------------------------------------------|
|-44444444---77777-------------------------------------------------------|
|-xxxxxxxx---xxxxx--77---------------------------------------------------|
|-22222222---55555--77---------------------------------------------------|
|-------------------77---------------------------------------------------|

Chorus-
Gtr1

|------------------------------------------------------------------------|
|------------------------------------------------------------------------|
|--------------------------7777777---------------------------------------|
|-0000000-4444444-9999999--7777777--5555555-44444444-5555555-7~----------|
|-0000000-4444444-9999999--5555555--5555555-44444444-5555555-7~----------|
|-0000000-4444444-9999999-----------5555555-44444444-5555555-7~----------|

Gtr2

|------------------------------------------------------------------------|
|------------------------------------------------------------------------|
|-7777777-6666666-4444444--7777777--7777777-66666666-7777777-9~----------|
|-xxxxxxx-xxxxxxx-xxxxxxx--xxxxxxx--xxxxxxx-xxxxxxxx-xxxxxxx-x-----------|
|-5555555-4444444-2222222--5555555--5555555-44444444-5555555-7~----------|
|------------------------------------------------------------------------|

Continued..
Gtr1

|------------------------------------------------------------------------|
|-----------7-8--10~------8--7~------------------------------------------|
|-------------------------------9~---7~----------------------------------|
|-0~~~~~~~~~~~~~~~~~~~~~~~~~~~~~~~~~~~~~~~~~~~~~~~~~~~~~~~~~~~~~---------|
|-0~~~~~~~~~~~~~~~~~~~~~~~~~~~~~~~~~~~~~~~~~~~~~~~~~~~~~~~~~~~~~---------|
|-0~~~~~~~~~~~~~~~~~~~~~~~~~~~~~~~~~~~~~~~~~~~~~~~~~~~~~~~~~~~~~---------|


Gtr2

|------------------------------------------------------------------------|
|---10-10----10-10----10-10----10-10----10-10----10-10----10-10---10-10--|
|-7-------77-------77-------77------77--------77-------77------77--------|
|------------------------------------------------------------------------|
|------------------------------------------------------------------------|
|------------------------------------------------------------------------|


VerseII -


1.Gtr1&2

|------------------------------------------------------------------------|
|------------------------------------------------------------------------|
|------------------------------------------------------------------------|
|-0~~~~~~~~5~-/7~~~~~0~~~~~~5~-/-7~~~~~~~~~0~~~~~~5~-/-7~~~~~~~~-5-7-----|
|-0~~~~~~~~5~-/7~~~~~0~~~~~~5~-/-7~~~~~~~~~0~~~~~~5~-/-7~~~~~~~~-5-7-----|
|-0~~~~~~~~5~-/7~~~~~0~~~~~~5~-/-7~~~~~~~~~0~~~~~~5~-/-7~~~~~~~~-5-7-----|
5

2.
Gtr1

|------------------------------------------------------------------------|
|------------------------------------------------------------------------|
|------------------6-7---------------------------------------------------|
|-0000000-5555-7777---7-0000000-5555-7777----0000000-5555-7777-----------|
|-0000000-5555-7777-----0000000-5555-7777----0000000-5555-7777-----------|
|-0000000-5555-7777-----0000000-5555-7777----0000000-5555-7777-----------|
  ******* **** ****     ******* **** ****    ******* **** ****

Gtr2

|------------------------------------------------------------------------|
|---10-10----10-10----10-10----10-10----10-10----10-10----10-10---10-10--|
|-7-------77-------77-------77------77--------77-------77------77--------|
|------------------------------------------------------------------------|
|------------------------------------------------------------------------|
|------------------------------------------------------------------------|


,chorus2x &continued

Bridge-

trying hard..
Gtr1&2

|------------------------------------------------------------------------|
|------------------------------------------------------------------------|
|------------------------------------------------------------------------|
|-0-0-0-0-0-0-0-0-0-0-0-0-0-0-0-0-0-0-0-0-0-0-0-0-0-0-0-0-0-0------------|
|-0-0-0-0-0-0-0-0-0-0-0-0-0-0-0-0-0-0-0-0-0-0-0-0-0-0-0-0-0-0------------|
|-0-0-0-0-0-0-0-0-0-0-0-0-0-0-0-0-0-0-0-0-0-0-0-0-0-0-0-0-0-0------------|

pap..pap..

|------------------------------------------------------------------------|
|------------------------------------------------------------------------|
|------------------------------------------------------------------------|
|-00-0-0-55555-77777---00-0-0-55555-77777---00-0-0-55555-77777-----------|
|-00-0-0-55555-77777---00-0-0-55555-77777---00-0-0-55555-77777-----------|
|-00-0-0-55555-77777---00-0-0-55555-77777---00-0-0-55555-77777-----------|
  ** * *               ** * *               ** * *       

|------------------------------------------------------------------------|
|------------------------------------------------------------------------|
|------------------------------------------------------------------------|
|-00-0-0-55555-77777---00-0-0-55555-77777---00-0-0-5~-7~----0~-----------|
|-00-0-0-55555-77777---00-0-0-55555-77777---00-0-0-5~-7~----0~-----------|
|-00-0-0-55555-77777---00-0-0-55555-77777---00-0-0-5~-7~----0~-----------|
  ** * *               ** * *               ** * *  



|---------------------------------------------------------------------------------|
|---------------------------------------------------------------------------------|

Head Over Heels Tab by New Found Glory 

Tuning- GtrI & Gtr II ( e b g d A E }

Intro-

1.
|------------------------------------------------------|
|------------------------------------------------------|
|-3~----------------------5~---------------------------|
|-3~----------------------5~---------------------------|2x
|-1~----------------------3~---------------------------|
|------------------------------------------------------|



1.
GtrI
|------------------------------------------------------|
|------------------------------------------------------|
|-3~----------------------5~---------------------------|
|-3~----------------------5~---------------------------|2x
|-1~----------------------3~---------------------------|
|------------------------------------------------------|

GtrII 
|----------------------13/15~-13---------------------------------------|
|--------------------------------/11~-10-----------------11-10---------|
|-----------10/12~-10---------------------10-10/12~-----------10-12----|
|-10/12~-10-----------------------------------------12~-------------12-|
|----------------------------------------------------------------------|
|----------------------------------------------------------------------|

---------------------13/15~-13----------|
----------------------------------------|
----------10/12~-10---------------------|
-10/12~-10------------------------------|
----------------------------------------|
----------------------------------------|

Verse-
1.
GtrI
|------------------------------------------------------|
|------------------------------------------------------|
|------------------------------------------------------|
|------------------------------------------------------|2x
|-55555555--33333333--55555555-33333333----------------|
|-33333333--11111111--33333333-11111111----------------|

2.
GtrI
|------------------------------------------------------|
|------------------------------------------------------|
|------------------------------------------------------|
|------------------------------------------------------|2x
|-55555555--33333333--55555555-33333333----------------|
|-33333333--11111111--33333333-11111111----------------|

GtrII
|------------------------------------------------------|
|------------------------------------------------------|
|-77777777--55555555--77777777-55555555----------------|
|-xxxxxxxx--xxxxxxxx--xxxxxxxx-xxxxxxxx----------------|2x
|-55555555--33333333--55555555-33333333----------------|
|------------------------------------------------------|


Chorus-
|------------------------------------------------------|
|------------------------------------------------------|
|------------------------------------------------------|
|---------7777777----------7777777---------7777777-8~--|
|-3333333-5555555--3333333-5555555-3333333-5555555-6~--|
|-1111111----------1111111---------1111111-------------|


|------------------------------------------------------|
|------------------------------------------------------|
|-5555555-7777777--5555555-7777777-5555555-7777777-8~--|
|-xxxxxxx-xxxxxxx--xxxxxxx-xxxxxxx-xxxxxxx-xxxxxxx-x---|
|-3333333-5555555--3333333-5555555-3333333-5555555-6~--|
|------------------------------------------------------|


Interlude-


|------------------------------------------------------------------|
|------------11-10-----11-10-------------------------------11-10---|
|-12-10--------------------------10*10*-12-----10-12-10-12---------|
|-------12*--------12*-------12*-----------12*---------------------|
|------------------------------------------------------------------|
|------------------------------------------------------------------|

|------------------------------------------------------|
|--------11-10-----------------------------------------|
|-----12--------10-12-10-------------------------------|
|-12*--------------------12~---10-12/------------------|
|------------------------10~---------------------------|
|------------------------------------------------------|

Do verse-Chorus-
Interlude-
effects-

Repeat till fade


GtrI
|------------------------------------------------------|
|------------------------------------------------------|
|------------------------------------------------------|
|-333333333333333-55555555555555555--------------------|
|-111111111111111-33333333333333333--------------------|
|------------------------------------------------------|




GtrII 
|----------------------13/15~-13---------------------------------------|
|--------------------------------/11~-10-----------------11-10---------|
|-----------10/12~-10---------------------10-10/12~-----------10-12----|
|-10/12~-10-----------------------------------------12~-------------12-|
|----------------------------------------------------------------------|
|----------------------------------------------------------------------|

Related for From The Screen To Your Stereo Part Ii tab