Song name
# A B C D E F G H I J K L M N O P Q R S T U V W X Y Z

New Heights - Peaches tab

New Heights- Peaches (Plucking Tutorial)
Capo (2nd fret)
Tabs by Hon

C#M

E ----10----------------------------------------------|
A ----------------------------------------------------|
D ------------11-------11-----------------------------|
G -----------------11---------------------------------|
B -------------------------------0--------------------|
E ----------------------------0-----0-----------------|

A

E-----------------------------------------------------|
A----0------------------------------------------------|
D-------11-------11-----------------------------------|
G------------11---------------------------------------|
B-------------------------0---------------------------|
E---------------------0-------------------------------|

B

E----9------------------------------------------------|
A-----------------------------------------------------|
D---------11-------11---------------------------------|
G--------------11-------------------------------------|
B----------------------------0------------------------|
E-------------------------0-----0---------------------|

E

E-----------------------------------------------------|
A----9------------------------------------------------|
D-------11--------------------------------------------|
G-----------------------------------------------------|
B---------------0-------------------------------------|
E------------0----------------------------------------|

(Quick Change between E & Eb)

Eb

E-----------------------------------------------------|
A----8------------------------------------------------|
D-------11--------------------------------------------|
G-----------------------------------------------------|
B---------------0-------------------------------------|
E------------0----------------------------------------|
Tap to rate this tab
 
# A B C D E F G H I J K L M N O P Q R S T U V W X Y Z