Song name
# A B C D E F G H I J K L M N O P Q R S T U V W X Y Z

New Heights - Peaches tab

Capo 2nd Fret
Standard Tuning: EADGBe
Chords:
    C#m |  A |  B |  E  |  Eb| 
e|---x--|--0-|--x-|--x--|--x-|
B|---x--|--0-|--x-|--x--|--x-|
G|---9--|--9-|--8-|--9--|--9-|
D|---9--|--9-|--9-|--9--|--9-|
A|---x--|--0-|--x-|--7--|--6-|
E|---9--|--0-|--7-|--x--|--x-|


Intro/Verse:
    (C#m)
e -------------------0-----------------------------------|
B -------------------------------------------------------|
G -------------------------------------------------------|
D -----------9-----------9------9------------------------|
A --------9----9------------9----------------------------|
E ----9--------------------------------------------------|
     (A)
e ---------------0---------------------------------------|
B -------------------------------------------------------|
G --------9----------------------------------------------|
D ------9---9-----------9------9-------------------------|
A ---0----------------------9----------------------------|
E -------------------------------------------------------|
     (B)
e -------------------0-----------------------------------|
B -------------------------------------------------------|
G -------------------------------------------------------|
D ----------8-------------8-----8------------------------|
A ------9------9-------------9---------------------------|
E ---7---------------------------------------------------|
    (E --------> Eb) *Quick Change
e -------------------------------------------------------|
B -------------------------------------------------------|
G --------9-----------9----------------------------------|
D -----9-----9-----9-----9-------------------------------|
A ---7-----------6---------------------------------------|
E -------------------------------------------------------|

Chorus: Part 1 (2x)
     (A)
e ---------------0---------------------------------------|
B -------------------------------------------------------|
G --------9----------------------------------------------|
D ------9---9-----------9------9-------------------------|
A ---0----------------------9----------------------------|
E -------------------------------------------------------|

     (B)
e -------------------0-----------------------------------|
B -------------------------------------------------------|
G -------------------------------------------------------|
D ----------8-------------8-----8------------------------|
A ------9------9-------------9---------------------------|
E ---7---------------------------------------------------|

    (C#m)
e -------------------0---------------------------0-------|
B -------------------------------------------------------|
G -------------------------------------------------------|
D -----------9-----------9------9----------9------9---9--|
A --------9----9------------9------------9---9------9----|
E ----9--------------------------------9-----------------|

Part 2:

     (A)
e ---------------0---------------------------------------|
B -------------------------------------------------------|
G --------9----------------------------------------------|
D ------9---9-----------9------9-------------------------|
A ---0----------------------9----------------------------|
E -------------------------------------------------------|

     (B)
e -------------------0-----------------------------------|
B -------------------------------------------------------|
G -------------------------------------------------------|
D ----------8-------------8-----8------------------------|
A ------9------9-------------9---------------------------|
E ---7---------------------------------------------------|

    (E --------> Eb) *Quick Change
e -------------------------------------------------------|
B -------------------------------------------------------|
G --------9-----------9----------------------------------|
D -----9-----9-----9-----9-------------------------------|
A ---7-----------6---------------------------------------|
E -------------------------------------------------------|

    (C#m -----------> B -------------> A) *Quick Change
e -------------------------------------------------------|
B -------------------------------------------------------|
G -------------------------------------9-----------------|
D -----------9--------------8----------9-----------------|
A --------9----9---------9----9--------0-----------------|
E ----9---------------7----------------------------------|
                                (Pluck A together)

Bridge: (Palm Mute)
          A               E       Eb
Could you find yourself a way home?


Chorus/End: (Strum or Pluck)
         A   B   C#m
It is in you, to carry on
         A   B   C#m
It is in you, to lay down fears that hold
         A   B   E    Eb   C#m B    A
It is in you, to find your way home



Tap to rate this tab
# A B C D E F G H I J K L M N O P Q R S T U V W X Y Z