Song name
# A B C D E F G H I J K L M N O P Q R S T U V W X Y Z

New Jerusalem - Final Stand tab

Standard Tuning

Riff 1 x4
Riff 2 x2
Riff 3 x2
Riff 1 x4
Riff 4 x2
Riff 5 x2
Riff 6 x4
Riff 1 x4
Riff 2 x2
Riff 3 x2
Riff 6 for the rest of the song. 

Riff 1
|-------------------------|
|-------------------------|
|-------------------------|
|-55555552----------------|  
|-55555552----------------|
|-33333330----------------|

Riff 2
|--------------------------------|
|--------------------------------|
|--------------------------------|
|-------------------------0-22---|
|-------------0-1-22-2-3-4-------|
|00-0-1-2-33-3-------------------|

Riff 3
|--------------------------------|
|--------------------------------|
|-------------------------2-44---|
|-------------2-3-44-4-5-60-22---|
|22-2-3-4-55-50-1-22-2-3-4-------|
|00-0-1-2-33-3-------------------|

Riff 4 Play Rapidly
|--------------------------------|
|--------------------------------|
|--------------------------------|
|22-2-0--------------------------|
|------4-33-3-2-1-00-------------|
|-------------------3-2-1-00-----|

Riff 5 Play Rapidly
|--------------------------------|
|--------------------------------|
|44-4-2--------------------------|
|22-2-06-55-5-4-3-22-------------|
|------4-33-3-2-1-005-4-3-22-----|
|-------------------3-2-1-00-----|

Riff 6
|--------------------------------|
|--------------------------------|
|--------------------------------|
|-2---2--------2-2-5555----------|
|------------------5555----------|
|0-0-0-0-00-0-0-0--3333----------|
Tap to rate this tab
 
# A B C D E F G H I J K L M N O P Q R S T U V W X Y Z