Song name
# A B C D E F G H I J K L M N O P Q R S T U V W X Y Z

New Kids On The Block - Valentine Girl tab

Highlighted       Show chord diagrams
(this is the right tab)
Band: NKOTB
Song: valentine girl
Tabbed by: Carlos Ramirez
Tuning: Standard


INTRO:
   Gadd9    Cmaj7  Bm7       Cmaj7    Bm7         Bm7     Am7   C/D
                                                          
e|--10----|---3-----2----------3--------2----------2-------0-----3------|
B|--10----|---5-----3----------5--------3----------3-------1-----5------|
G|---0----|---4-----2----------4--------2----------2-------0-----5------|
D|---9----|---5-----4----------5--------4----------4-------2-----0------|
A|--10----|---3-----2----------3--------2----------2-------0-----x------|
E|--------|---x-----x----------x--------x----------x-------------x------|
                      be my...valentine girl  ooh ooh ooh ooh


VERSE:
   Bm7                         Cmaj7 Bm7     Am7             C/D
                                                             
e|--2----------------------------3----2-------0---------------3-----------|
B|--3----------------------------5----3-------1---------------5-----------|
G|--2----------------------------4----2-------0---------------5-----------|
D|--4----------------------------5----4-------2---------------0-----------|
A|--2----------------------------3----2-------0---------------------------|
E|--x----------------------------x----x-----------------------------------|
      there's not a star in the sky          that could equal to


         Gmaj7
e|--------2----------------------|
B|--------3----------------------|
G|--------4----------------------|
D|--------5----------------------|
A|-------------------------------|
E|-------------------------------|
    the sparkling in your eyes

   Bm7                      Cmaj7           C/D
e|--2------------------------3---------------3----------------------------|
B|--3------------------------5---------------5----------------------------|
G|--2------------------------4---------------5----------------------------|
D|--4------------------------5---------------0----------------------------|
A|--2------------------------3--------------------------------------------|
E|--x------------------------x--------------------------------------------|
       this card is only one way to let you know just how I feel


CHORUS:
   Eb/F          Cmaj7      Bm7          Cmaj7        Bm7       Am7  C/D   
                                                  
e|--3--------------3---------2-------------3-----------2---------0---3----|
B|--4--------------5---------3-------------5-----------3---------1---5----|
G|--3--------------4---------2-------------4-----------2---------0---5----|
D|--3--------------5---------4-------------5-----------4---------2---0----|
A|--x--------------3---------2-------------3-----------2---------0--------|
E|--x--------------x---------x-------------x-----------x------------------|
   will you be my valentine girl and I'll give you my heart forever


         Cmaj7      Bm7        Cmaj7         Bm7       Am7    C/D
                                                           
e|---------3---------2-----------3------------2---------0------3----------|
B|---------5---------3-----------5------------3---------1------5----------|
G|---------4---------2-----------4------------2---------0------5----------|
D|---------5---------4-----------5------------4---------2------0----------|
A|---------3---------2-----------3------------2---------0-----------------|
E|---------x---------x-----------x------------x---------------------------|
    be my valentine girl  and I won't let you go  no never

verse, chorus, instrumental(same as verse),chorus

OUTRO:
      Gmaj7                   Cmaj7                   Gmaj7        Cmaj7
    
e|------2-----------------------3----------------------2-------------3-|
B|------3-----------------------5----------------------3-------------5-|
G|------4-----------------------4----------------------4-------------4-|
D|------5-----------------------5----------------------5-------------5-|
A|------------------------------3------------------------------------3-|
E|------------------------------x------------------------------------x-|
                             be my....          my valentine girl
      I need you I want you I want you in my world valentine girl (etc..)
Tap to rate this tab
 
# A B C D E F G H I J K L M N O P Q R S T U V W X Y Z