Song name
# A B C D E F G H I J K L M N O P Q R S T U V W X Y Z

New Life Worship - Bless The Lord tab

Artist: New Life Worship
Song: Bless The Lord Solo
Tab: MDESCD

Pretty standard.  Listen to song for rhythm of solo.


E ------------------------------------------------------------|
B ---14----14 12----12 12---12--11--9----14---14 12---12 14---|
G ------11-------11-------11----------------11------11--------|
D ------------------------------------------------------------|
A ------------------------------------------------------------|
E ------------------------------------------------------------|


E -----------19--16------------------------------19---16------|
B ---19---17--------19--16--19-------19--16--17---------------|
G -----------------------------18-----------------------------|
D --------------------------------18--------------------------|
A ------------------------------------------------------------|
E ------------------------------------------------------------|


E ------------------------------------------------------------|
B ---19--16--19-----------------------------------------------|
G ---------18--15--13-----------------------------------------|
D ------------------------------------------------------------|
A ------------------------------------------------------------|
E ------------------------------------------------------------|
Tap to rate this tab
 
# A B C D E F G H I J K L M N O P Q R S T U V W X Y Z