Song name
# A B C D E F G H I J K L M N O P Q R S T U V W X Y Z

New Medicine - Laid tab

     Hello,
 This Is My First Tab.  I Tabbed It All By Ear.  I Am 100% Sure This Is    100% Right.  
Rate!!!

Tuning: Standard


      |------------------------------------------------------|
      |-------55530-----55530-----55530----------------------|
Intro |------------------------------------------------------|
      |---------------------------------5-5-5-4-4-4----------|
      |---2-2-------5-5-------7-7-------3-3-3-2-2-2-5-5-5-5-5| X2
      |---0-0-------3-3-------5-5-------------------3-3-3-3-3|


      |-------------------------|
      |-------------------------|
      |-------------------------|
Verse |-------------------------|
      |-2-2--2-2-2--2-2-2-23333-|X4
      |-0-0--0-0-0--0-0-0-01111-|

Chorus |-------------------------------------|
       |-------------------------------------|
       |-------------------------------------|
       |-------------5555555---------7777777-|
       |-2-2-3333333-3333333-5555555-5555555-|X2
       |-0-0-1111111---------3333333---------|

Bridge|-----------------------------------------|
      |-----------------------------------------|
      |-----------------------------------------|
      |-----------------------------------------|
      |---2-2------5-5-5------7-7-7------7-3333-| X2
      |---0-0------3-3-3------5-5-5------5-1111-|


Verse X4

Chorus X2

Bridge X2


|--------------------------------------------------------------------------|
|--------------------------------------------------------------------------|
|--------------------------------------------------------------------------|
|-44444444-55555555-44444444-55555555-444444444-55555555----------77777777-|
|-22222222-33333333-22222222-33333333-222222222-33333333-55555555-55555555-|
|--------------------------------------------------------33333333----------|

Intro X2

Chorus X2

Bridge X4


There Ya Go Whole Song.  Please Rate.  My First Tab Tabbed. Rate And Maybe Ill Do More.
Tap to rate this tab
 
# A B C D E F G H I J K L M N O P Q R S T U V W X Y Z