Song name
# A B C D E F G H I J K L M N O P Q R S T U V W X Y Z

New Medicine - The Takeover tab

    cancion: the takeover
    artista: new medicine
    tabeado por dantehard

 intro
e------------------------------------------|
b------------------------------------------|
g-8-88888-6-66-11-10-8/--------------------|
d-8-88888-6-66-11-10-8/--------------------|(x5)
a-6-66666-4-44--9--8-6/--------------------|
e------------------------------------------|
    .....   ..

 verso
e----------------------------------------|
b----------------------------------------|
g-6-6-6-6-6-6-6/-----------------8-------|
d-6-6-6-6-6-6-6/-888888888888888-8-------|
a-4-4-4-4-4-4-4/-666666666666666-6-------|
e----------------------------------------|
                ...............

 coro 1
e--------------------------------------------------------------------|
b--------------------------------------------------------------------|
g-8-8---------6-8-8---------6-8-8-----------5-5-5-5-6-6-6-6------8~--|
d-8-8-6-7-7-7-6-8-8-6-7-7-7-6-8-8-6-7-7-7-7-5-5-5-5-6-6-6-6-(x2)-8~--|
a-6-6-6-7-7-7-4-6-6-6-7-7-7-4-6-6-6-7-7-7-7-3-3-3-3-4-4-4-4------6~--|
e-----4-5-5-5-------4-5-5-5-------4-5-5-5-5--------------------------|


 verso
e----------------------------------------|
b----------------------------------------|
g-6-6-6-6-6-6-6/-----------------8-------|
d-6-6-6-6-6-6-6/-888888888888888-8-------|
a-4-4-4-4-4-4-4/-666666666666666-6-------|
e----------------------------------------|
                ...............

 coro 2
e--------------------------------------------------------------------|
b--------------------------------------------------------------------|
g-8-8---------6-8-8---------6-8-8-----------5-5-5-5-6-6-6-6------8~--|
d-8-8-6-7-7-7-6-8-8-6-7-7-7-6-8-8-6-7-7-7-7-5-5-5-5-6-6-6-6-(x2)-8~--|
a-6-6-6-7-7-7-4-6-6-6-7-7-7-4-6-6-6-7-7-7-7-3-3-3-3-4-4-4-4------6~--|
e-----4-5-5-5-------4-5-5-5-------4-5-5-5-5--------------------------|


e------------------------------|
b------------------------------|
g----------------------8-------|
d--888888888888888-etc-8-------|
a--666666666666666-----6-------|
e------------------------------|

e---------------------------------------------------------------------------------|
b---------------------------------------------------------------------------------|
g-8-8---------6-8-8---------6-8-8-----------5-5-5-5-6-6-6-6------5-5-5-5-6-6-6-6--|
d-8-8-6-7-7-7-6-8-8-6-7-7-7-6-8-8-6-7-7-7-7-5-5-5-5-6-6-6-6-(x2)-5-5-5-5-6-6-6-6--|
a-6-6-6-7-7-7-4-6-6-6-7-7-7-4-6-6-6-7-7-7-7-3-3-3-3-4-4-4-4------3-3-3-3-4-4-4-4--|
e-----4-5-5-5-------4-5-5-5-------4-5-5-5-5---------------------------------------|


e-------------------------------------------------------------------|
b-------------------------------------------------------------------|
g-8-88888-6-66-11-10-8-88888-9-9-9-8-88888-6-66-11-10-9-9-9-9-8-----|
d-8-88888-6-66-11-10-8-88888-9-9-9-8-88888-6-66-11-10-9-9-9-9-8-----|
a-6-66666-4-44--9--8-6-66666-7-7-7-6-66666-4-44--9--8-7-7-7-7-6-----|
e-------------------------------------------------------------------|
    .....   ..         .....         .....   ..

 creo que esta bien pero hay algunas partes que creo que
 tiene mas distorcion y yo no tengo jaja pero en
fin ahi os dejo esta cancion que esta de puta madre
Tap to rate this tab
 
# A B C D E F G H I J K L M N O P Q R S T U V W X Y Z