Song name
# A B C D E F G H I J K L M N O P Q R S T U V W X Y Z

New Medicine - The Takeover tab

New Medicine-The Takeover
Race You To The Bottom (2010)
Guitar Tab
Drop Db (Db, Ab, Db, Gb, Bb, Eb)

Intro
Eb----------------------|x4
Bb----------------------|
Gb----------------------|
Db----------------------|
Ab-2-x-x--x-x-0-x-x-5-4-|
Db-2-x-x--x-x-0-x-x-5-4-|

Verse
1. Bass

2. Guitar
Eb-------------|x1
Bb-------------|
Gb-------------|
Db-------------|
Ab-2--2--2-2-2-|
Db-2--2--2-2-2-|

3. Bass

4. Guitar
Eb-----------------|x4
Bb-----------------|
Gb-----------------|
Db-----------------|
Ab-7-7-7-7-7-7-7-7-|
Db-----------------|

Chorus

(1,2,3 Times)       (4th Time)
Eb--------------x3-----------------|x1
Bb--------------  -----------------|
Gb--------------  -----------------|
Db--9-9-------7-  -5-5-5-5-7-7-7-7-|
Ab--7-7-5/7-7-5-  -3-3-3-3-5-5-5-5-|
Db------5/7-7---  -----------------|

(1,2,3 Times)       (4th Time)
Eb--------------x3---------------------------------|x1
Bb--------------  ---------------------------------|
Gb--------------  ---------------------------------|
Db--9-9-------7-  -5-5-5-5-7-7-7-7-5-5-5-5-7-7-7-7-|
Ab--7-7-5/7-7-5-  -3-3-3-3-5-5-5-5-3-3-3-3-5-5-5-5-|
Db------5/7-7---  ---------------------------------|

Eb---
Bb---
Gb---
Db-2-
Ab-2-(Hold)
Db-2-

Verse
1. Bass

2. Guitar
Eb-------------|x1
Bb-------------|
Gb-------------|
Db-------------|
Ab-2--2--2-2-2-|
Db-2--2--2-2-2-|

Eb-----------------|x4
Bb-----------------|
Gb-----------------|
Db-----------------|
Ab-7-7-7-7-7-7-7-7-|
Db-----------------|

Chorus

(1,2,3 Times)       (4th Time)
Eb--------------x3-----------------|x1
Bb--------------  -----------------|
Gb--------------  -----------------|
Db--9-9-------7-  -5-5-5-5-7-7-7-7-|
Ab--7-7-5/7-7-5-  -3-3-3-3-5-5-5-5-|
Db------5/7-7---  -----------------|

(1,2,3 Times)       (4th Time)
Eb--------------x3---------------------------------|x1
Bb--------------  ---------------------------------|
Gb--------------  ---------------------------------|
Db--9-9-------7-  -5-5-5-5-7-7-7-7-5-5-5-5-7-7-7-7-|
Ab--7-7-5/7-7-5-  -3-3-3-3-5-5-5-5-3-3-3-3-5-5-5-5-|
Db------5/7-7---  ---------------------------------|

Eb---
Bb---
Gb---
Db-2-
Ab-2-(Hold)
Db-2-

Chorus

(1,2,3 Times)       (4th Time)
Eb--------------x3-----------------|x1
Bb--------------  -----------------|
Gb--------------  -----------------|
Db--9-9-------7-  -5-5-5-5-7-7-7-7-|
Ab--7-7-5/7-7-5-  -3-3-3-3-5-5-5-5-|
Db------5/7-7---  -----------------|

(1,2,3 Times)       (4th Time)
Eb--------------x3---------------------------------|x1
Bb--------------  ---------------------------------|
Gb--------------  ---------------------------------|
Db--9-9-------7-  -5-5-5-5-7-7-7-7-5-5-5-5-7-7-7-7-|
Ab--7-7-5/7-7-5-  -3-3-3-3-5-5-5-5-3-3-3-3-5-5-5-5-|
Db------5/7-7---  ---------------------------------|

Outro
Eb----------------------|x1
Bb----------------------|
Gb----------------------|
Db----------------------|
Ab-2-x-x--x-x-0-x-x-5-4-|
Db-2-x-x--x-x-0-x-x-5-4-|

Eb------------------|x1
Bb------------------|
Gb------------------|
Db------------------|
Ab-2-x-x--x-x-3-3-3-|
Db-2-x-x--x-x-3-3-3-|

Eb----------------------|x1
Bb----------------------|
Gb----------------------|
Db----------------------|
Ab-2-x-x--x-x-0-x-x-5-4-|
Db-2-x-x--x-x-0-x-x-5-4-|

Eb-----------|
Bb-----------|
Gb-----------|
Db-----------|
Ab-3--3--3-3-|
Db-3--3--3-3-|


Eb---
Bb---
Gb---
Db-2-
Ab-2-(Hold)
Db-2-
Tap to rate this tab
 
# A B C D E F G H I J K L M N O P Q R S T U V W X Y Z