Song name
# A B C D E F G H I J K L M N O P Q R S T U V W X Y Z

New Model Army - Purity tab

--------------------------------------------------------------------------------
			     PURITY - New Model Army
-------------------------------------------------------------------------------
Tabbed by: heipi

Intro (1st part /picking)

e|-----0---4------|-----0---5------|-----0---4------|-----0---4------|
B|---4---4---4---4|---4---4---4---4|---4---4---4---4|---4---4---4---4|
G|-6-----------6--|-6-----------6--|-5-----------5--|-4-----------4--|
D|----------------|----------------|----------------|----------------|
A|----------------|----------------|----------------|----------------|
E|----------------|----------------|----------------|----------------|

e|-----0---4------|-----0---5------|-----0---4------|-----0---4------|
B|---4---4---4---4|---4---4---4---4|---4---4---4---4|---4---4---4----|
G|-6-----------6--|-6-----------6--|-5-----------5--|-4-----------4-0|
D|----------------|----------------|----------------|----------------|
A|----------------|----------------|----------------|----------------|
E|----------------|----------------|----------------|----------------|

e|-----0---4------|-----0---4------|-----0---2------|-----0---2------|
B|---4---4---4----|---4---4---4----|---4---4---4----|---2---2---2---2|
G|-2-----------2-0|-1-----------1-0|-1-----------1-0|-3-----------3--|
D|----------------|----------------|----------------|----------------|
A|----------------|----------------|----------------|----------------|
E|----------------|----------------|----------------|----------------|

e|-----0---2------|-2--------------| 
B|---2---2---2---2|----------------|
G|-2-----------2--|----------------|
D|----------------|----------------|
A|----------------|----------------|
E|----------------|----------------|

Intro (2nd part /chords)

C#m B| A | A E | B

Main chords verse:

C#m A | B E | C#m A | G#m G#m

Violin main melody:

   C#m     A       B        E        C#m     A        G#m     G#m

e|-4-------5------|---------4------|-4-------5------|---------7------|
B|---------------5|-7-----------7--|---------------5|-7-----------5--|
G|----------------|----------------|----------------|----------------|
D|----------------|----------------|----------------|----------------|
A|----------------|----------------|----------------|----------------|
E|----------------|----------------|----------------|----------------|


Violin bridge melody:

   C#m     A       B        E        C#m     A        G#m     G#m

e|-4-------5------|---------4------|-4-------5-----5|-7--------------|
B|---------------5|-7-----------7--|----------------|----------------|
G|----------------|----------------|----------------|----------------|
D|----------------|----------------|----------------|----------------|
A|----------------|----------------|----------------|----------------|
E|----------------|----------------|----------------|----------------|

   C#m     A         B       E        C#m      A        G#m    G#m

e|-9-------------11|-9---7---4---7--|-9-----11-9---7--|-4--------------|
B|-----------------|----------------|-----------------|----------------|
G|-----------------|----------------|-----------------|----------------|
D|-----------------|----------------|-----------------|----------------|
A|-----------------|----------------|-----------------|----------------|
E|-----------------|----------------|-----------------|----------------|


Violin melody at end:

   C#m     A        B       E        C#m     A        G#m     G#m

e|-4-0---0-5-0---5|-2-------4------|-4-0---0-5-0---5|-2--------------|
B|-----2-------2--|---4-0-4---4-0-4|-----2-------2--|---4-0-4-0-4-0-4|
G|----------------|----------------|----------------|----------------|
D|----------------|----------------|----------------|----------------|
A|----------------|----------------|----------------|----------------|
E|----------------|----------------|----------------|----------------| repeat (2x)


   C#m      A       B        E       C#m     A        G#m     G#m

e|-4-0---0-5-0---5|-2-------4------|-4-0---0-5-0---5|----------------|
B|-----2-------2--|---4-0-4---4-0-4|-----2-------2--|-7-4-----------4|
G|----------------|----------------|----------------|-----4-------4--|
D|----------------|----------------|----------------|-------4---4----|
A|----------------|----------------|----------------|---------6------|
E|----------------|----------------|----------------|----------------|


   C#m   

e|----------------|
B|-7--------------|
G|----------------|
D|----------------|
A|----------------|
E|----------------|

Tap to rate this tab
# A B C D E F G H I J K L M N O P Q R S T U V W X Y Z