Song name
# A B C D E F G H I J K L M N O P Q R S T U V W X Y Z

New Model Army - Bad Old World tab

New Model Army
Bad Old World


moderately distored
Intro:
|---------------------------------------------------------------------------------------|
|---------------------------------------------------------------------------------------|
|-----------------------------------------7-5-4-----------------------------------------|
|---------------------------------------5-----------------------------------------------|
|-0-2-3-3-2-0-/5-0h7-5-3-0-2-3-3-2-0-/5-------------------------------------------------|
|---------------------------------------------------------------------------------------|
                                              Dear      
 Verse 1:   
|--1------------------------------------------------------------------------------------|
|----1----------------------------------------------------------------------------------|
|------2--------0---------------------------------0-------------------------------------|
|-----------0h2-----------------------------0---0---------------------------------------|
|---------0-----------------------------0h2---2-----------------------------------------|
|1---------------------------3----------------------------------------------------------|
 Justin   I know it's been a long time               Remember all those nights we spent 
|--1------------------------------------------------------------------------------------|
|----1----------------------------------------------------------------------------------|
|------2--------------------o---------------------0-------------------------------------|
|-----------------------0h2-----------------0---0---------------------------------------|
|---------------------0-----------------0h2---2-----------------------------------------|
|-1--------------------------------3----------------------------------------------------|
  sitting up talking in your front room            about leaving this
|--1-----------------0------------------------------------------------------------------|
|----1-----------------1-------------3--------------------0h1p0-------------------------|
|------2-----------------0-------------2------------------------0-----------------------|
|-3----------------2---------------0-----0----------------------------------------------|
|---------------------------------------------------------------------------------------|
|---------------------------------------------------------------------------------------|
 worn out world to start again far away in a better place   

|---------------------------------------------------------------------------------------|
|-----------------------1---------------------------------------------------------------|
|---------------0---------2------------------------------------0------------------------|
|----------0h2--------------3----------------------------0---0--------------------------|
|-------0--------------------------------------------0h2---2----------------------------|
|---------------------1--------------------3--------------------------------------------|
 that's where I am now but still thinking about you 

 Chorus:
|--------------------------------0------------------------------------------------------|
|----------------3-1-3-5-3-1-3-3---3-1--------------------------------------------------|
|---------------------------------------------------------------------------------------|
|---------------------------------------------------------------------------------------|
|---------------------------------------------------------------------------------------|
|---------------------------------------------------------------------------------------|
|  (second guitar)                                                                      |
|----------------5-------7-----10-------------------------------------------------------|
|---------------------------------------------------------------------------------------|
|---------------------------------------------------------------------------------------|
|---------------------------------------------------------------------------------------|
|---------------------------------------------------------------------------------------|
|---------------------------------------------------------------------------------------|
 
I'm never going back there     I'm never going back to the bad old world
|---------------------------------------------------------------------------------------|
|----------------3-1-3-5-3-1-3-3-0h1-0--------------------------------------------------|
|--------------------------------------0------------------------------------------------|
|---------------------------------------------------------------------------------------|
|---------------------------------------------------------------------------------------|
|---------------------------------------------------------------------------------------|
| (second guitar)                                                                       |
|----------------5------7------3--------------------------------------------------------|
|---------------------------------------------------------------------------------------|
|---------------------------------------------------------------------------------------|
|---------------------------------------------------------------------------------------|
|---------------------------------------------------------------------------------------|
|---------------------------------------------------------------------------------------|

                              I'm never going back to the bad old world
|--------------------------------0------------------------------------------------------|
|----------------3-1-3-5-3-1-3-3---3-1--------------------------------------------------|
|---------------------------------------------------------------------------------------|
|---------------------------------------------------------------------------------------|
|---------------------------------------------------------------------------------------|
|---------------------------------------------------------------------------------------|
                               I'm never going back to the bad old world
                              
|---------------------------------------------------------------------------------------|
|----------------3-1-3-5-3-1-3-3-oh1-0--------------------------------------------------|
|--------------------------------------0------------------------------------------------|
|---------------------------------------------------------------------------------------|
|---------------------------------------------------------------------------------------|
|---------------------------------------------------------------------------------------|
 Verse 2:
 I was travelling with Laurel
 way up on the north coast
 she's got family living up here
 in a nearby town
 We found a piece of land 
 that looks out towards 
 the northsea islands across the bay
 the sun is shining on the water today
 as I look out of our front door

Chorus:
Bridge:

|-------------------------------------------4BU5-4BU5-7BU8-7BU8-7BU8-7BU8-/10-----------|
|------7BU8-7BU8-7BU8-7BU8-7BU8-7BU8-7BU8-7---------------------------------------------|
|---------------------------------------------------------------------------------------|
|---------------------------------------------------------------------------------------|
|---------------------------------------------------------------------------------------|
|---------------------------------------------------------------------------------------|
(second guitar)
     A:F:A:F:G:                              A:F:A:F:G:
 Okay
clean
Special:

|---------------------------------------------------------------------------------------|
|-------------------------------1-------1-----------------------------------------------|
|------------------------------2-------2--------------------------0--------------0------|
|-----------------------------3-------2--------------------------0---------0---0--------|
|----------------------------3-------0--------------------------2------0h2---2----------|
|--------------------------------------------------------------3------------------------|
 Are you still scared at the future       well that doesn't surprise me
|---------------------------------------------------------------------------------------|
|--------------------------------1----------------1--------1-----------------0----------|
|-------------------------------2----------------2-----------2------------0----0--------|
|------------------------------3----------------2--------------2---------0-------0------|
|-----------------------------3----------------0-------------------2--------------------|
|------------------------------------------------------------------3--------------------|
 You could come up and stay here a while back off from the killing wheel

|--------------------------1-1----------------------------------------------------------|
|-------------------------1----1--------------------------------------------------------|
|------------------------2-------2-------------2----------------------------------------|
|-----------------------3------------------0h2----------------------0-------------------|
|----------------------------------------0--------------------2-0h2---------------------|
|-------------------------------------------------------------3-------------------------|
 I used to think it was me who'd somehow sold out or given in some almighty cause

moderately distored
|------1----------------------------------------------------1----------------0----------|
|--------1---------------1------------------------------------1------------3---3-1------|
|----------2------------2------2--------------------------------2--------0--------------|
|----3-----------------2---0h2-------------------3----------------------0---------------|
|---3-----------------0-------------------------3----------------------2----------------|
|-1--------------------------------------------1----------------------3-----------------|
             But what difference would it make    it feels good to be out here
Chorus:
Outro:
      A:F:G:F:A:
...tabbed by NEILSKA 
...supplements, corrections ( Idon't think you gonna find some) or other causes send 
   to  neilska@web.de   
Tap to rate this tab
# A B C D E F G H I J K L M N O P Q R S T U V W X Y Z