New Model Army - Wired tab

Artist: New Model Army
Track: Wired
Album: High
Tuning: Standard


As it's a simple song I haven't indicated how many times to play each note or the 
structure. Just listen to the song for those.


Intro/Verse part 1

e--------------|
b--------------|
g--------------|
d--9--7--9--7--|
a--9--7--9--7--|
e--7--5--7--5--|

Verse part 2

e--------------|
b--------------|
g--------------|
d--5--7--5--7--|
a--5--7--5--7--|
e--3--5--3--5--|


Chorus

e-----------|
b-----------|
g-----------|
d--7--5--9--|
a--7--5--9--|
e--5--3--7--|


Breakdown

e-----
b-----
g--9--  ** let ring a few times **
d--9--
a--7--
e-----


End

e-------------|
b-------------|
g-------------|
d--7--7-5--9--|
a--7--7-5--9--|
e--5--5-3--7--|
Tap to rate this tab
 
# A B C D E F G H I J K L M N O P Q R S T U V W X Y Z