Song name
# A B C D E F G H I J K L M N O P Q R S T U V W X Y Z

New Monsoon - Border Ghost tab

-------------------------------------------------------------------------------
			     BORDER GHOST - New Monsoon
-------------------------------------------------------------------------------

Tabbed by:24WildRovers
Email:barberbr2@wsdmail.net

  Part One
       /  / / /    /  / / /       / /  /   /   / / / /   / / / /
e|----------------|--------------|------------|---------|-----------|
B|----------------|--------------|------------|---------|-----------|
G|-----5--5-5-5h7-|4--4-4-4h5h7--|7-7h5--7h8--|8-8-7-5--|5-5-5-7h8--|
D|----------------|--------------|------------|---------|-----------|
A|----------------|--------------|------------|---------|-----------|
E|----------------|--------------|------------|---------|-----------|

   /  / / /       / /  /   /   /  / / /  / / / /
e|---------------|------------|---------|-----------|
B|---------------|------------|---------|-----------|
G|-4--4-4-4h5h7--|7-7h5--7h8--|10-8-7-5-|5-5-5-7h8-|
D|---------------|------------|---------|-----------|
A|---------------|------------|---------|-----------|
E|---------------|------------|---------|-----------|

    /  / / /       / /  /   /     /  / / /
e|----------------|--------------|------------|
B|----------------|--------------|------------|
G|--4--4-4-4h5h7--|7-7h5--7s8----|8--8-7-5s3--|
D|----------------|--------------|------------|
A|----------------|--------------|------------|
E|----------------|--------------|------------|

Part Two
    /  / / /    /  / / /     /  / / /    /  / / / 
e|-------------|------------|-----------|----------|
B|-------------|------------|-----------|----------|
G|--3--3-3-3h5-|------------|-----------|----------|
D|-------------|5--5-5-3h5--|0--0-0-0h3s|5--5-5-5--|
A|-------------|------------|-----------|----------|
E|-------------|------------|-----------|----------|

    /  / / /    /  / / /  / / /  /  / /    /  /   /  / /  /
e|-------------|---------|---------|-------------|-----------|
B|-------------|---------|---------|-------------|-----------|
G|--3--3-3-3h5s|8--8-8-8-|7-5-3--3-|3-3p0--------|-----------|
D|-------------|---------|---------|-------3--0--|5----3--0--|
A|-------------|---------|---------|-------------|-----------|
E|-------------|---------|---------|-------------|-----------|


Part One

Part Two

Part One


Part Three
    / / / /  / / / /  /   /  /  /  / / / /
e|----------|--------|------------|-------|
B|----------|--------|------------|-------|
G|--5-7-8-5-|--------|10--12-10-8-|5s7-8--|
D|----------|8-6-5---|------------|-------|
A|----------|--------|------------|-------|
E|----------|--------|------------|-------|

    / / / /  / / / /   /   /  /  /    / / / /   ////
e|----------|--------|--------------|----------|----|
B|----------|--------|--------------|----------|----|
G|--5-7-8-5-|--------|-12--12-12-13-|-10-8-7-8-|10--|
D|----------|8-6-5---|--------------|----------|----|
A|----------|--------|--------------|----------|----|
E|----------|--------|--------------|----------|----|
Tap to rate this tab
# A B C D E F G H I J K L M N O P Q R S T U V W X Y Z