Song name
# A B C D E F G H I J K L M N O P Q R S T U V W X Y Z

New Order - Ceremony tab

----------------------------------------------------------------------------
			     CEREMONY - New Order
----------------------------------------------------------------------------
Tabbed by:slf10

intro bass tabbed for guitar:
e|--------------------------------------------------------------------------|
B|--------------------------------------------------------------------------|
G|--------------------------------------------------------------------------|
D|--7--7--7--7-7-7-7---7--7--7--7-7-7-7--repeat as needed-------------------|
A|-5--5--5--5-5-5-5---------------------------------------------------------|
E|--------------------5--5--5--5-5-5-5--------------------------------------|


intro guitar:
e|--------------------------------------------------------------------------|
B|--------------------------------------------------------------------------|
G|----------------------------------10--------------------------------------|
D|-----7-5--------------------------10---------10---------------------------|
A|-5-7-----5/7-5-7-5-7-5-7--3-------8----------10---------------------------|
E|---------------------------------------------8----------------------------|


verse:
e|--------------------------------------------------------------------------|
B|--------------------------------------------------------------------------|
G|-9-9-9---10101010--9-9-9---10101010---------------------------------------|
D|-101010--10101010--101010--10101010-9-9-9--10101010--9-9-9--10101010------|
A|-8-8-8---8-8-8-8---8-8-8---8-8-8-8--101010-10101010--101010-10101010------|
E|------------------------------------8-8-8--8-8-8-8---8-8-8--8-8-8-8-------|

e|--------------------------------------------------------------------------|
B|--------------------------------------------------------------------------|
G|---10-9-------------------------------------------------------------------|
D|--------10-Repeat a few times-then>----1010--10---10-10-------------------|
A|-8-----------------------------------8------8---8---8---------------------|
E|--------------------------------------------------------------------------|


solo:
e|--------------------------------------------------------------------------|
B|--------------------------------------------------------------------------|
G|--------------------------------------------------------------------------|
D|-2-0-2-0-2/5-5-3-2-0---2-0-2-0-2-2-0-2-0----times 2-----------------------|
A|--------------------------------------------------------------------------|
E|--------------------------------------------------------------------------|

e|---------33---------------------------------------------------------------|
B|-5-3-5-3----6-5-3--5-3-5-3-5-5-3-5-3--------------------------------------|
G|--------------------------------------------------------------------------|
D|---------------------------------------times 2----------------------------|
A|--------------------------------------------------------------------------|
E|--------------------------------------------------------------------------|


during the verse after the solo this is played over the chords
e|--------------------------------------------------------------------------|
B|--------------------------------------------------------------------------|
G|----10-----10-----10-----10-----------------------------------------------|
D|--10-----10-----10-----10-------------------------------------------------|
A|-8------8------8------8---------------------------------------------------|
E|--------------------------------------------------------------------------|

thats all the parts. listen to song for song structure i think this is close to perfect. 
leave comments if there is any correctons you feel need to be made.

| /  slide up
| \  slide down
| h  hammer-on
| p  pull-off
| ~  vibrato
| +  harmonic
| x  Mute note
============================================================================
Tap to rate this tab
# A B C D E F G H I J K L M N O P Q R S T U V W X Y Z