Song name
# A B C D E F G H I J K L M N O P Q R S T U V W X Y Z

New Order - Temptation tab

its not 100% correct but it sounds ok to me

e-------------------------------------------------------------|
b-------------------------------------------------------------|
g-------------------------------------------------------------|
d--17171717-15-13---17171717-15-13---12121212-14-12---x4------|
a--000000000-0-0----00000000-0---0----0000000-0---0-----------|
e-------------------------------------------------------------|


e--------------------0-----------------------0---|
b-----5-6-5-3~~~---------6-5-3---------------1---|
g--5--------------5-------------5~~~~~-x4----0---|
d--------------------------------------------2---|
a--------------------------------------------3---|
e--------------------------------------------x---|
Tap to rate this tab
# A B C D E F G H I J K L M N O P Q R S T U V W X Y Z