Song name
# A B C D E F G H I J K L M N O P Q R S T U V W X Y Z

New Order - Bizzare Love Triangle tab

tabbed by: abbe manuales...
Song title: bizzare love triangle
Artist/band: new order
capo 1st fret


intro:
      F             G              Em
e--------------|-------------|--------------|
B-1---1----1---|-3---3-----3-|-0-----0---0--|
G--2---2----2--|--4----4-----|---0----0-----|
D---3---3------|---5-----5---|-----2---2----|
A--------------|-------------|--------------|
E--------------|-------------|--------------|

      F
e------------|2x
B-1---1---1--|
G--2---2---2-|
D---3---3----|
A------------|
E------------|

the chords from introduction is the same throughout the whole song..ok!!!

e-----3---| NOTE:use this Em when thers a parenthesis on the word
B-3----3--|
G--4-4----|
D---5-----|
A---------|
E---------|
[Verse]

  Every time I think of you

I feel shot right through with a bolt of blue

It's no problem of mine but it's a problem I find

Living a life that I can't leave behind

There's no sense in telling me

The wisdom of a fool won't set you (free)

But that's the way that it goes

And it's what nobody (knows)

While every day my confusion grows

[Chorus]

Every time I see you (falling)

I get down on my knees and pray

I'm waiting for that final (moment)

You'll  say the words that I can't say

[use C on the outro, then use chords from the intro]

[Verse]

I feel fine and I feel good

I'm feeling like I never should

Whenever I get this way, I just don't know what to (say)

Why can't we be ourselves like we were yesterday

I'm not sure what this could mean

I don't think you're what you seem

I do admit to myself

That if I hurt someone else

Then I'll never see just what we're meant to be

(repeat chorus..2x) then,

outr0:

      C
e----------|-----1---|3x
B----1-----|----1-1--|
G---0--0---|---2---2-|
D--2-----2-|-0-------|
A-3--------|---------|
E----------|---------|
Tap to rate this tab
# A B C D E F G H I J K L M N O P Q R S T U V W X Y Z