Song name
# A B C D E F G H I J K L M N O P Q R S T U V W X Y Z

New Order - Regret tab

Regret - (Guitar Tab)
by New Order from the album Republic
tabbed by Jeff Johnson from
Substance - A New Order Tribute
jeffrjohnson@yahoo.com

Intro
  [C]                                    [Riff 1] - 3X
|--------------------------------------|---0--0--------0--------0----0----0---|
|--------------------------------------|---0--1--------3--------0----0----0---|
|--5-----------------------------------|---0--0--------0--------0----0----0---|
|--5-----------------------------------|---2--2--------2--------2----2----2---|
|--3-----------------------------------|---3--3--------3--------3----3----3---|
|--------------------------------------|--------------------------------------|

Rhythm Figure 1 - 4X 
|---0------0----0----0----0----0----0--|---0--0--------0--------0----0----0---|
|---0------1----1----1----1----1----1--|---0--1--------3--------0----0----0---|
|---0------0----0----0----0----0----0--|---0--0--------0--------0----0----0---|
|---2------2----2----2----2----2----2--|---2--2--------2--------2----2----2---|
|---3------3----3----3----3----3----3--|---3--3--------3--------3----3----3---|
|--------------------------------------|--------------------------------------|

Rhythm Figure 2 - 2X
  [F]                                    
|---0----0-----1-----3------1-----1----|---0----0-----1-----3------1-----1----|
|---0----0-----1-----1------1-----1----|---0----0-----1-----1------1-----1----|
|---2----2-----2-----2------2-----2----|---2----2-----2-----2------2-----2----|
|---3----3-----3-----3------3-----3----|---3----3-----3-----3------3-----3----|
|--------------------------------------|--------------------------------------|
|--------------------------------------|--------------------------------------|

|---0----0-----1-----3------1-----1----|---0-----0----0----0----0----0----0---|
|---0----0-----1-----1------1-----1----|---0-----0----0----0----0----0----0---|
|---2----2-----2-----2------2-----2----|---0-----0----0----0----0----0----0---|
|---3----3-----3-----3------3-----3----|---2-----2----2----2----2----2----2---|
|--------------------------------------|---3-----3----3----3----3----3----3---|
|--------------------------------------|--------------------------------------|

Verse 1

F
Maybe I've forgotten
    Bb
The name and the address
   F
Of everyone I've ever known
     Bb
It's nothing I regret
Dm           Am
Save it for another day
         Bb
It's the school exam
                   C  
The kids have run away

(Riff 1)

Chorus 1

(w/Rhythm Figure 1 - 4X)
I would like a place I can call my own

Have a conversation on my telephone

Wake up everyday, that would be a start

I would not complain with my wounded heart

(w/Rhythm Figure 2 - 2X)
I was upset, you see

Almost all the time

You used to be a stranger

Now you are mine


Verse 2

  F
I wouldn't even trust you
     Bb
I've not that much to give
      F
We're dealing in the limits, and
Bb
We don't know who with
Dm                     Am
You may think that I'm out of hand
     Bb
That I'm naive, I'll understand
   C              Am
On this occasion, it's not true
Bb                      C 
Look at me, I'm not you

(Riff 1)

Chorus 2

(w/Rhythm Figure 1 - 4X)
I would like a place I can call my own

Have a conversation on my telephone

Wake up everyday, that would be a start

I would not complain with my wounded heart

(w/Rhythm Figure 2 - 2X)
I was a short fuse

Burning all the time

You were a complete stranger

Now you are mine

Bridge: 
F Bb F Bb Dm Am Bb C 

(Riff 1)

Chorus 3

(w/Rhythm Figure 1 - 8X)
I would like a place I can call my own

Have a conversation on my telephone

Wake up everyday, that would be a start

I would not complain with my wounded heart

Just wait 'till tomorrow

I guess that's what they all say

Just before they fall apart

Outro

(Rhythm Figure 2 - 3X)
    
   [C]
|---0----------------------------------|
|---1----------------------------------|
|---0----------------------------------|
|---2----------------------------------|
|---3----------------------------------|
|--------------------------------------|

End
Tap to rate this tab
 
# A B C D E F G H I J K L M N O P Q R S T U V W X Y Z