Song name
# A B C D E F G H I J K L M N O P Q R S T U V W X Y Z

New Order - Dream Attack tab

DREAM ATTACK

Really not sure about the underlying chords here. The Em might be more of a E/B.


Intro chords: D Em G A  then D G A G, F# G A G


Electric guitar
|---------------------------|---------------------------|
|---------------------------|---------------------------|
|-------------------7---9---|-------------------7---9---|
|-9---9---9---9-9-----------|-7---9---9---9-9-----------|
|---------------------------|---------------------------|
|---------------------------|---------------------------|

|------------------------------------------|
|------------------------------------------|
|-11--9--9--7--7---6--7--6--7--------------|
|------------------------------7----9--9---|
|------------------------------------------|
|------------------------------------------|


bass
|-----------------------|-----------------------|
|-----------------------|-----------------------|
|-2---2-2--2-2--2--0----|------------------0--2-|
|---------------------3-|-3---3-3--3-3--3-------|


Spanish guitar in verse
|-------------------------|--------------------------|
|-------------------------|--------------------------|
|-------------2-----------|-----------------0--0-----|
|----0-----0-----0-----0--|-------------0--------4---|
|-2-----2-----------2-----|----2-----2---------------|
|-------------------------|-3-----3------------------|


Bridge riff ("I don't belong with no-one…")
|------------------------|------------------------|
|------------------------|------------------------|
|-2-2---0-2-2-2-2-0-0----|--0-0---0-0-0---0-------|
|------------------------|------------------3-3---|


Acoustic guitar break:  D A B


Ending riff
|-----------------------|------------------------------|
|-----------------------|------------------------------|
|-4--4-6--6-7--9--9--9--|-11--11--11-9--9--9--4--4--4--|
|-----------------------|------------------------------|
|-----------------------|------------------------------|
|-----------------------|------------------------------|

|-----------------------|------------------------------|
|-----------------------|------------------------------|
|-4--4-6--6-7--9--9--9--|-11---11-11---11-11---11-11---|
|-----------------------|------------------------------|
|-----------------------|------------------------------|
|-----------------------|------------------------------|

this plays over the bass playing: B G Em F#
Tap to rate this tab
# A B C D E F G H I J K L M N O P Q R S T U V W X Y Z