Song name
# A B C D E F G H I J K L M N O P Q R S T U V W X Y Z

New Order - Run Wild tab

RUN


bass verse chords: C F C F C F C G  |  C F C F C F C D


guitar riff for second half of verse
|---------------------------|---------------------------|
|---------------------------|---------------------------|
|---------------------0-----|---------------------------|
|-2-2-0-2-2-0-2-2-0-2---2-0-|-2-2-0-2-2-0-2-2-0-2-0---0-|
|---------------------------|-----------------------3---|
|---------------------------|---------------------------|


distorted guitar in chorus 
|---------------------|---------------------------------------|
|---------------------|---------------------------------------|
|--5--5--7--10-9--5---|--5--5--7--10-9-7-5--10-10-9--7--5--7--|
|---------------------|---------------------------------------|
|---------------------|---------------------------------------|
|---------------------|---------------------------------------|
                    x2

other messier distorted guitar in chorus
|----------------------------|--------------------------------|-----------------|
|---------------6--6-----6---|-6--------6-------6-----6-------|-8-8-8-8-8-8-8---|
|-------5---5---------5------|-----5--------5-----5------5 ---|-----------------|
|--5-------------------------|--------------------------------|-----------------|
|----------------------------|--------------------------------|-----------------|
|----------------------------|--------------------------------|-----------------|
                           x3                                  

Acoustic guitar riff at end
|---0-0-------0-0-0-----|---0-0-------0-3-0-----|
|-------3-1-3-------3-1-|-------3-1-3-------3-1-|
|-0---------------------|-0---------------------|
|-----------------------|-----------------------|
|-----------------------|-----------------------|
|-----------------------|-----------------------|

|---0-0-------0-0-0-----|----------------0--0---0-------|
|-------3-1-3-------3-1-|-3--3-1-3-1-3-1------3---3-1-3-|
|-0---------------------|-------------------------------|
|-----------------------|-------------------------------|
|-----------------------|-------------------------------|
|-----------------------|-------------------------------|
Tap to rate this tab
# A B C D E F G H I J K L M N O P Q R S T U V W X Y Z