Song name
# A B C D E F G H I J K L M N O P Q R S T U V W X Y Z

New Order - Round And Round tab

ROUND AND ROUND


Intro riff for guitar
|------3--5--6----5-----3-----|
|-3---------------------------|
|-----------------------------|
|-----------------------------|
|-----------------------------|
|-----------------------------|


bass fill
|-5-3-2-------------|---------------------------|-5----5--5--5-------------------|
|-------5-3-5-3-----|--------3-5-7-5---5---5----|---------------8--7--5-3-5-3-5--|
|---------------5---|-5---5---------------------|--------------------------------|
|-------------------|---------------------------|--------------------------------|

Chorus chords are roughly A# C D
Tap to rate this tab
 
# A B C D E F G H I J K L M N O P Q R S T U V W X Y Z