Song name
# A B C D E F G H I J K L M N O P Q R S T U V W X Y Z

New Order - All The Way tab

ALL THE WAY


Verse chords: G D Am C


Chorus chords: The guitar plays the riff below while the bass plays G D E G

Chorus guitar riff (the chords are approximately G and C)
|----------------------|---------------------------|
|----0-1-0-----------0-|-1------3------1--0-----0--|
|-0--------2--0--2-2---|----0-0-----0--------2-----|
|----------------------|---------------------------|
|----------------------|---------------------------|
|----------------------|---------------------------|


post-chorus synth at 1:13 then again at the very end
|----------------------------------------------------------------------------------|
|----------------------------------------------------------------------------------|
|----------------------------------------------------------------------------------|
|-5--------------5--5-4-5----------4-5-7-----5----------------5--5-4-5-------------|
|--------5--------------------------------------------5----------------------------|
|----------------------------------------------------------------------------------|


Middle section chords:

F# F# F# F# F# F# F# E E G,  G G G G G G G F# F# F# 
Tap to rate this tab
# A B C D E F G H I J K L M N O P Q R S T U V W X Y Z