Song name
# A B C D E F G H I J K L M N O P Q R S T U V W X Y Z

New Order - Finetime tab

FINETIME

The song's mostly synths and loops but you can do a passable version 
 of the various bits on guitar. 



Main synth bass riff
|--------------------------|-------------------------------|
|--------------------------|-------------------------------|
|----------------------1---|-------------------------------|
|-1-1--1--1--1-3--3--1---3-|-1-1--1--1-1-1-3--3------------|


synth lead for guitar
|-------------------|---------------------
|-------------------|---------------------|
|-6-8---6-8---------|-11--10--8----6------|
|------------8-8-8--|----------------8-8--|
|-------------------|---------------------|
|-------------------|---------------------|
                  x3

This synth riff comes in occasionally throughout the song
|--------------------------------------------|
|--------------------------------------------|
|------------------------7-5-5---------------|
|-------------------------------7----9-------|
|-8---5---10----------5----------------------|
|--------------------------------------------|


Then this tiny fill on guitar or bass pops up around 2:45
|--------------------------------------------|
|--------------------------------------------|
|--------------------------------------------|
|--3----5----------5--3-2-3-2----------------|
|------------------------------3-------------|
|--------------------------------------------|


Synth horns at around 3:04
|--------------------------|-----------------------------|
|--------------------------|-----------------------------|
|--------------------------|-----------------------------|
|-7--7-7-5--7--10-10--7--5-|-7--7-7-5--7--7--7---7-------|
|--------------------------|-----------------------------|
|--------------------------|-----------------------------|


Guitar (?) riff at 4:04
|----------------------------------|---------------------------------|
|-------5----------8--6-5-6-5------|--------5-----------8--6-5-6-5---|
|-5--5----7---------------------5--|--5--5-----7---------------------|
|----------------------------------|---------------------------------|
|----------------------------------|---------------------------------|
|----------------------------------|---------------------------------|
Tap to rate this tab
# A B C D E F G H I J K L M N O P Q R S T U V W X Y Z