Song name
# A B C D E F G H I J K L M N O P Q R S T U V W X Y Z

New Order - Temptation tab

Play in what every arrangement you prefer.
Although you could probably figure out the exact arrangement on the 12".
From watching live recordings, I'm sure this is nearly 100% accurate.


Chords

    C           C   C           C   C
--|-0-|-x-^-x-|-0-|-0-|-x-^-x-|-0-|-0-|-x-^-x--|
--|-2-|-x-|-x-|-2-|-2-|-x-|-x-|-2-|-2-|-x-|-x--|
--|-0-|-x-|-x-|-0-|-0-|-x-|-x-|-0-|-0-|-x-|-x--|
--|-2-|-x-|-x-|-2-|-2-|-x-|-x-|-2-|-2-|-x-|-x--|
--|-3-|-x-|-x-|-3-|-3-|-x-|-x-|-3-|-3-|-x-|-x--|
--V---V---|---V---V---V---|---V---V---V---|----|

    C           C   C           C   C
--|-0-|-x-^-x-|-0-|-0-|-x-^-x-|-0-|-0-|-x-^-x--|
--|-2-|-x-|-x-|-2-|-2-|-x-|-x-|-2-|-2-|-x-|-x--|
--|-0-|-x-|-x-|-0-|-0-|-x-|-x-|-0-|-0-|-x-|-x--|
--|-2-|-x-|-x-|-2-|-2-|-x-|-x-|-2-|-2-|-x-|-x--|
--|-3-|-x-|-x-|-3-|-3-|-x-|-x-|-3-|-3-|-x-|-x--|
--V---V---|---V---V---V---|---V---V---V---|----|

    F           F   F           F   F
--|-1-|-x-^-x-|-1-|-1-|-x-^-x-|-1-|-1-|-x-^-x--|
--|-1-|-x-|-x-|-1-|-1-|-x-|-x-|-1-|-1-|-x-|-x--|
--|-2-|-x-|-x-|-2-|-2-|-x-|-x-|-2-|-2-|-x-|-x--|
--|-3-|-x-|-x-|-3-|-3-|-x-|-x-|-3-|-3-|-x-|-x--|
--|-3-|-x-|-x-|-3-|-3-|-x-|-x-|-3-|-3-|-x-|-x--|
--V---V---|---V---V---V---|---V---V---V---|----|

    F           F   F           F   F
--|-1-|-x-^-x-|-1-|-1-|-x-^-x-|-1-|-1-|-x-^-x--|
--|-1-|-x-|-x-|-1-|-1-|-x-|-x-|-1-|-1-|-x-|-x--|
--|-2-|-x-|-x-|-2-|-2-|-x-|-x-|-2-|-2-|-x-|-x--|
--|-3-|-x-|-x-|-3-|-3-|-x-|-x-|-3-|-3-|-x-|-x--|
--|-3-|-x-|-x-|-3-|-3-|-x-|-x-|-3-|-3-|-x-|-x--|
--V---V---|---V---V---V---|---V---V---V---|----|

Power Chords

  C C C CC CC C C   C C C CC CC C C
-----------------------------------------------|
-----------------------------------------------|
--5-5-5-55-55-5-5---5-5-5-55-55-5-5------------|
--5-5-5-55-55-5-5---5-5-5-55-55-5-5------------|
--3-3-3-33-33-3-3---3-3-3-33-33-3-3------------|
-----------------------------------------------|

  C  C  C  C C  C C  C  C    C  C  C  A A  A A  C  C
-----------------------------------------------------------|
-----------------------------------------------------------|
--17-17-17-1717-1717-17-17---17-17-17-1919-1919-17-17------|
--17-17-17-1717-1717-17-17---17-17-17-1919-1919-17-17------|
--15-15-15-1515-1515-15-15---15-15-15-1717-1717-15-15------|
-----------------------------------------------------------|

Riffs
                      x2                     x2
-|---------------------|----------------------|
-|---------------------|----------------------|
-|---------------------|----------------------|
-|-17--15-14-----14----|---------14-----14----|
-|------------17----17-|--17--17-----17----17-|
-|---------------------|----------------------|

                   x2                     x2
-|------------------|----------------------|
-|------------------|----------------------|
-|------------------|----------------------|
-|-17--17-17--15-14-|---------14-----14----|
-|------------------|--17--17-----17----17-|
-|------------------|----------------------|

                             x2
-|----------------------------|
-|---5~--5~-4~----4~--4~-5~---|
-|-5---5--------5---5---------|
-|----------------------------|
-|----------------------------|
-|----------------------------|

Barre Chords

         C         G                       F
---------8---------3-----------------------1---|
---------8---------3-----------------------1---|
---------9---------4-----------------------2---|
---------10--------5-----------------------3---|
---------10--------5-----------------------3---|
---------8---------3-----------------------1---|
And I've Never Met Anyone Quite Like You Before
Tap to rate this tab
# A B C D E F G H I J K L M N O P Q R S T U V W X Y Z